American idiot

Gitaarliedjes, tabs & akkoorden (chords) American idiot - green day

Songtype: Tab

arrow&v

Markeer als favoriet

Favoriet

Gemarkeerd als favoriet

Capo:

0

green day

green day

Song
Album
Categorie

American idiot

Downloads
1290
Niveau
2
Geplaatst door
gilerakevie
ProTabs-promo.jpg

Kevin Bruin

Greenday - American Idiot

Intro: + Verse:
|----------------------------|
|----------------------------|
|---------6-6-6-------6------|
|--6-6-6--6-6-6--4-4--6-6-4--|
|--6-6-6--4-4-4--4-4--4-6-4--|
|--4-4-4---------2-2----4-2--|

Chorus:
|-------------------------------------|
|-------------------------------------|
|-66666666----------88888888----------|
|-66666666-66666666-88888888-66666666-|
|-44444444-66666666-66666666-66666666-|
|----------44444444----------44444444-|

|-------------------------------------|
|-------------------------------------|
|-66666666----------88888888----------|
|-66666666-66666666-88888888- Drums --|
|-44444444-66666666-66666666----------|
|----------44444444-------------------|

Solo:
|----------------------------------|
|----------------------------------|
|----------------------------------|
|----------------------------------|
|--8-8-8-8-8-8-8-8-8-8-8-8-8-8-6-4-|
|----------------------------------|

|----------------------------------------------|
|----------------------------------------------|
|------------------------3-3-3-3-3-3-3-6-5-3---|
|--------------------------------------------6-|
|-6-6-6-6-6-6-6--8-6-4-3-----------------------|
|----------------------------------------------|

|-------------------8-----11------|
|-----9------11----------------9~-|
|-8-8----8-8----8-8---8-8----8----|
|---------------------------------|
|---------------------------------|
|---------------------------------|

|----------------------------------|
|----------------------------------|
|----------------------------------|
|----------------------------------|
|--8-8-8-8-8-8-8-8-8-8-8-8-8-8-6-4-|
|----------------------------------|

|----------------------------------------------|
|----------------------------------------------|
|------------------------3-3-3-3-3-3-3-6-5-3---|
|--------------------------------------------6-|
|-6-6-6-6-6-6-6--8-6-4-3-----------------------|
|----------------------------------------------|

|-----|
|-9~~-|
|-----|
|-----|
|-----|
|-----|

End:
|--------------------------|
|--------------------------|
|---------6-6-6-------6----|
|--6-6-6--6-6-6--4-4--6-6--|
|--6-6-6--4-4-4--4-4--4-6--|
|--4-4-4---------2-2----4--|

ProTabs promo.jpg

Onbeperkt en gratis toegang tot alle 25.000
Tabs & Chords en direct meespelen met

Artiest Liedje

...

Gitaarakkoorden green day - American idiot

Dankzij de bladmuziek op deze pagina wordt het een stuk makkelijker om met de gitaar mee te spelen met American idiot van green day De ProTabs van Gitaartabs worden door onze professionele gitaardocenten samengesteld. De tabs en chords zijn door leden zelf geplaatst. Deze undefined van green day met American idiot is voor je geschreven door gilerakevie

Tabs & Chords van green day - American idiot

Bij de ProTabs delen we niet alleen de tablatuur maar ook de speelwijze van American idiot Met een beetje gitaar ervaring moet je dit gitaarliedje zeker kunnen spelen, maar als het niet lukt zijn we er altijd om je te helpen. Door een gratis account aan te maken krijg je niet alleen toegang tot deze tab ,akkoorden & tabs van American idiot maar kun je ook onbeperkt meespelen met een van de meer dan 25.000 andere tabs & chords in onze database.

Plaats opmerking

Beoordeel deze song

Rate UsDon’t love itNot greatGoodGreatLove itRate Us

Bedankt voor je beoordeling!