Lord of the flies

Gitaarliedjes, tabs & akkoorden (chords) Lord of the flies - iron maiden

Songtype: Tab

arrow&v

Markeer als favoriet

Favoriet

Gemarkeerd als favoriet

Capo:

0

iron maiden

iron maiden

Song
Album
Categorie

Lord of the flies

Downloads
1013
Niveau
2

Geplaatst door
gitaartabs
ProTabs-promo.jpg

Intro
|--------------------------------------|
|--------------------------------------|
|----4-00---7-00--9-00--7-00--4p0------|
|----4-00---7-00--9-00--7-00--4p0------|
|--------------------------------------|
|--------------------------------------|

Guitar2
|---------------------------------------|
|---------------------------------------|
|---------------------------------------|
|---------------------------------------|
|--2------------------------------------|
|--0------------------------------------|

Guitar1
|------------------------------|
|------------------------------|
|------------------------------|
|----7--12--9--7---------------|
|----9--9---7--9---------------|
|------------------------------|

Guitar2
(X6)
|------------------------------------------|
|------------------------------------------|
|------------------------------------------|
|------------------------------------------|
|-4--------------------------------2-------|
|-2222222222222222222222222222222--0000----|

guitar1 pre refrein
|---------------------------------------------------------------------------|
|---------------------------------------------------------------------------|
|---7~---9~---9x99---7~--11---11-11-11-11-9-7---9~-9x99--7------------------|
|---7~---9~---9x99---7~--11---11-11-11-11-9-7---9~-9x99--7---444444--444444-|
|---5~---7~---7x77---5~--9----9--9--9--9--7-5---7~-7x77--5---444444--444444-|
|------------------------------------------------------------222222--222222-|

Refrein
(x2)
|-------------------------------------------|
|-------------------------------------------|
|-11---7-------9---7-7-7-7---9-----11-------|
|-11---7---7---9---7-7-7-7---9-----11-------|
|-9----5---7---7---5-5-5-5---7-----9--------|
|----------5--------------------------------|

Solo
|------------------------------------------------------------|
|---------------------------------15--17b17b17b17b--21-21b21b|
|----15--17b17b17b17b-17--15--14-----------------------------|
|------------------------------------------------------------|
|------------------------------------------------------------|
|------------------------------------------------------------|

|-------------------------------------------------------------|
|-21-19-17-16-17----------------------------------------------|
|------------------1212b11r--11-12b---------------------------|
|--------------------------12-------11-11-11-11-11-11-11-11-9-|
|-------------------------------------------------------------|
|-------------------------------------------------------------|

|-----19b19b19b-19-17-15-14-15-14--------|
|---------------------------------15-17--|
|----------------------------------------|
|----------------------------------------|
|----------------------------------------|
|----------------------------------------|

|----------------------------------------------------|
|--------------------------------------------7-9-7---|
|------6-7-9-7-6---6-7-9-7-6---6-7-9-7-6---9-------9-|
|----------------------------------------------------|
|----------------------------------------------------|
|----------------------------------------------------|

Tekst:

I don't care for this world anymore
I just want to live my own fantasy
Fate has brought us to these shores
What was meant to be is now happening

I've found that I like this living in danger
Living on edge it makes feel as one
Who cares now what's right or wrong,
it's reality
Killing so we survive
Wherever we may roam
Wherever we may hide
We've got to get away

I don't want existence to end
We must prepare ourselves for the elements
I just want to feel like we're strong
We don't need a code of morality

I like all the mixed emotion and anger
It brings out the animal the power you can feel
And feeling so high on this much adrenalin
Excited but scary to believe what we've become

Saints and sinners
Something within us
We are lord of flies

Saints and sinners
Something willing us
To be lord of the flies

ProTabs promo.jpg

Onbeperkt en gratis toegang tot alle 25.000
Tabs & Chords en direct meespelen met

Artiest Liedje

...

Gitaarakkoorden iron maiden - Lord of the flies

Dankzij de bladmuziek op deze pagina wordt het een stuk makkelijker om met de gitaar mee te spelen met Lord of the flies van iron maiden De ProTabs van Gitaartabs worden door onze professionele gitaardocenten samengesteld. De tabs en chords zijn door leden zelf geplaatst. Deze undefined van iron maiden met Lord of the flies is voor je geschreven door gitaartabs

Tabs & Chords van iron maiden - Lord of the flies

Bij de ProTabs delen we niet alleen de tablatuur maar ook de speelwijze van Lord of the flies Met een beetje gitaar ervaring moet je dit gitaarliedje zeker kunnen spelen, maar als het niet lukt zijn we er altijd om je te helpen. Door een gratis account aan te maken krijg je niet alleen toegang tot deze tab ,akkoorden & tabs van Lord of the flies maar kun je ook onbeperkt meespelen met een van de meer dan 25.000 andere tabs & chords in onze database.

Plaats opmerking

Verstuur

Beoordeel deze song

Rate UsDon’t love itNot greatGoodGreatLove itRate Us

Bedankt voor je beoordeling!