I apologize

Gitaarliedjes, tabs & akkoorden (chords) I apologize - krezip

Songtype: Tab

arrow&v

Markeer als favoriet

Favoriet

Gemarkeerd als favoriet

Capo:

0

krezip

krezip

Song
Album
Categorie

I apologize

what are you waiting for?

Downloads
1643
Niveau
2
Geplaatst door
kaham
ProTabs-promo.jpg

Nummer: I Apologize
Artiest: Krezip
Album: What Are You Waiting For?
Tab: BasG [Kaham]
Tuning: 1 Semitoon omlaag: Eb-Ab-Db-Gb-Bb-Eb
Tempo: Q = 90

Op verzoek van -Diederik- deze tab.

INTRO

Gb Gbsus2 Gbsus4 Gb
E S S S S E E S S S S E E S S S S E E S S S S E
Eb||---------------------------------------|---------------------------------------|
Bb||--12---------12----10------------10----|--13------------13----12---------12----|
Gb||------0-0-------0---------0-0-------0--|---------0-0-------0------0-0-------0--|
Db||---------------------------------------|---------------------------------------|
Ab||--10------10-------10---------10-------|--10---------10-------10------10-------|
Eb||---------------------------------------|---------------------------------------|


Gbsus2 Gbsus4 Gb
E S S S S E E S S S S E E S S S S E H
|---------------------------------------|--------------------------------|
|--12---------12----10------------10----|--13------------13----12--------|
|------0-0-------0---------0-0-------0--|---------0-0-------0------------|
|---------------------------------------|--------------------------------|
|--10------10-------10---------10-------|--10---------10-------10--------|
|---------------------------------------|--------------------------------|

COUPLET 1

Gb Gbsus2 Gbsus4 Gb
E S S S S E E S S S S E E S S S S E E S S S S E
|---------------------------------------|---------------------------------------|
|--12---------12----10------------10----|--13------------13----12---------12----|
|------0-0-------0---------0-0-------0--|---------0-0-------0------0-0-------0--|
|---------------------------------------|---------------------------------------|
|--10------10-------10---------10-------|--10---------10-------10------10-------|
|---------------------------------------|---------------------------------------|


Bb7 Abm7 B
E S S S S E E S S S S E E S S S S E E S S S S E
|-----------------2-------------|------------------0--------0----|
|--4---------4-------------4----|--1----------1---------------1--|
|--------2-----2-------2-----2--|---------0-----0-------0--------|
|------4-------------4----------|-------2-------------2----------|
|--2-------2------2------2------|--0--------0------3------3------|
|-------------------------------|--------------------------------|


Gb Gbsus2 Gbsus4 Gb
E S S S S E E S S S S E E S S S S E E S S S S E
|---------------------------------------|---------------------------------------|
|--12---------12----10------------10----|--13------------13----12---------12----|
|------0-0-------0---------0-0-------0--|---------0-0-------0------0-0-------0--|
|---------------------------------------|---------------------------------------|
|--10------10-------10---------10-------|--10---------10-------10------10-------|
|---------------------------------------|---------------------------------------|


Bb7 Ab7
E S S S S E E S S S S E E S S S S E E S S S S E
|-----------------2-------------|-----------------0-------------|
|--4---------4-------------4----|--2---------2-------------2----|
|--------2-----2-------2-----2--|--------0-----0-------0-----0--|
|------4-------------4----------|------2-------------2----------|
|--2-------2------2------2------|--0-------0------0------0------|
|-------------------------------|-------------------------------|


B Gb/Bb Db7/Ab Gb
E S S S S E E S S S S E E S S S S E E S S S S E
|--0--------0---------------------|----------------------------------|
|-------------1--3-----------3----|--1------------1----0--------0----|
|-------0--------------0-0-----0--|---------2-2-----2-----0-0-----0--|
|-----2---------------------------|----------------------------------|
|--3------3------2---------2------|--0----------0--------------------|
|---------------------------------|--------------------3------3------|


Ab7 B Dbadd11
E S S S S E E S S S S E E S S S S E E S S S S E
|-----------------0-------------|-----------------------------------|
|--2---------2-------------2----|--1--------1----3-------------3----|
|--------0-----0-------0-----0--|-------0-----0------------0-----0--|
|------2-------------2----------|-----2------------------4----------|
|--0-------0------0------0------|--3------3------5-----------5------|
|-------------------------------|-----------------------------------|

REFREIN 1

Ebm Dbadd11 B Gb5
E S S S S E E S S S S E E S S S S E E S S S S E
|------------------------------------|-------------------------------|
|--8---------8----7-------------7----|--5--------5----3---------3----|
|------0-0-----0----------0-0-----0--|-----0-0-----0------0-0-----0--|
|------------------------------------|-------------------------------|
|--7-------7------5-----------5------|--3------3---------------------|
|------------------------------------|----------------3-------3------|


Ebm Dbadd11 Ab7
E S S S S E E S S S S E E S S S S E E S S S S E
|------------------------------------|-----------------0-------------|
|--8---------8----7-------------7----|--2---------2-------------2----|
|------0-0-----0----------0-0-----0--|--------0-----0-------0-----0--|
|------------------------------------|------2-------------2----------|
|--7-------7------5-----------5------|--0-------0------0------0------|
|------------------------------------|-------------------------------|


Ebm Dbadd11 B Gb5
E S S S S E E S S S S E E S S S S E E S S S S E
|------------------------------------|-------------------------------|
|--8---------8----7-------------7----|--5--------5----3---------3----|
|------0-0-----0----------0-0-----0--|-----0-0-----0------0-0-----0--|
|------------------------------------|-------------------------------|
|--7-------7------5-----------5------|--3------3---------------------|
|------------------------------------|----------------3-------3------|


Ab7 B Dbadd11
E S S S S E E S S S S E E S S S S E E S S S S E
|-----------------0-------------|-----------------------------------|
|--2---------2-------------2----|--5--------5----7-------------7----|
|--------0-----0-------0-----0--|-----0-0-----0----------0-0-----0--|
|------2-------------2----------|-----------------------------------|
|--0-------0------0------0------|--3------3------5-----------5------|
|-------------------------------|-----------------------------------|


Ebm Dbadd11 B
E S S S S E E S S S S E H H
|------------------------------------|--------------------|
|--8---------8----7-------------7----|--5-----------------|
|------0-0-----0----------0-0-----0--|--------------------|
|------------------------------------|--------------------|
|--7-------7------5-----------5------|--3-----------------|
|------------------------------------|--------------------|

COUPLET 2

Gb Gbsus2 Gbsus4 Gb
E S S S S E E S S S S E E S S S S E E S S S S E
|---------------------------------------|---------------------------------------|
|--12---------12----10------------10----|--13------------13----12---------12----|
|------0-0-------0---------0-0-------0--|---------0-0-------0------0-0-------0--|
|---------------------------------------|---------------------------------------|
|--10------10-------10---------10-------|--10---------10-------10------10-------|
|---------------------------------------|---------------------------------------|


Bb7 Abm7 B
E S S S S E E S S S S E E S S S S E E S S S S E
|-----------------2-------------|------------------0--------0----|
|--4---------4-------------4----|--1----------1---------------1--|
|--------2-----2-------2-----2--|---------0-----0-------0--------|
|------4-------------4----------|-------2-------------2----------|
|--2-------2------2------2------|--0--------0------3------3------|
|-------------------------------|--------------------------------|


Gb Gbsus2 Gbsus4 Gb
E S S S S E E S S S S E E S S S S E E S S S S E
|---------------------------------------|---------------------------------------|
|--12---------12----10------------10----|--13------------13----12---------12----|
|------0-0-------0---------0-0-------0--|---------0-0-------0------0-0-------0--|
|---------------------------------------|---------------------------------------|
|--10------10-------10---------10-------|--10---------10-------10------10-------|
|---------------------------------------|---------------------------------------|


Bb7 Ab7
E S S S S E E S S S S E E S S S S E E S S S S E
|-----------------2-------------|-----------------0-------------|
|--4---------4-------------4----|--2---------2-------------2----|
|--------2-----2-------2-----2--|--------0-----0-------0-----0--|
|------4-------------4----------|------2-------------2----------|
|--2-------2------2------2------|--0-------0------0------0------|
|-------------------------------|-------------------------------|


B Bbm/5+ Db7/Ab Gb
E S S S S E E S S S S E E S S S S E E S S S S E
|--0--------0----------------------|----------------------------------|
|-------------1--3------------3----|--1------------1----0--------0----|
|-------0---------------0-0-----0--|---------2-2-----2-----0-0-----0--|
|-----2----------------------------|----------------------------------|
|--3------3------2----------2------|--0----------0--------------------|
|----------------------------------|--------------------3------3------|


Ab7 B Dbadd11
E S S S S E E S S S S E E S S S S E E S S S S E
|-----------------0-------------|-----------------------------------|
|--2---------2-------------2----|--1--------1----3-------------3----|
|--------0-----0-------0-----0--|-------0-----0----------4-0-----0--|
|------2-------------2----------|-----2-----------------------------|
|--0-------0------0------0------|--3------3------5-----------5------|
|-------------------------------|-----------------------------------|

REFREIN 2

Ebm Dbadd11 B Gb5
E S S S S E E S S S S E E S S S S E E S S S S E
|------------------------------------|-------------------------------|
|--8---------8----7-------------7----|--5--------5----3---------3----|
|------0-0-----0----------0-0-----0--|-----0-0-----0------0-0-----0--|
|------------------------------------|-------------------------------|
|--7-------7------5-----------5------|--3------3---------------------|
|------------------------------------|----------------3-------3------|


Ebm Dbadd11 Ab7
E S S S S E E S S S S E E S S S S E E S S S S E
|------------------------------------|-----------------0-------------|
|--8---------8----7-------------7----|--2---------2-------------2----|
|------0-0-----0----------0-0-----0--|--------0-----0-------0-----0--|
|------------------------------------|------2-------------2----------|
|--7-------7------5-----------5------|--0-------0------0------0------|
|------------------------------------|-------------------------------|


Ebm Dbadd11 B Gb5
E S S S S E E S S S S E E S S S S E E S S S S E
|------------------------------------|-------------------------------|
|--8---------8----7-------------7----|--5--------5----3---------3----|
|------0-0-----0----------0-0-----0--|-----0-0-----0------0-0-----0--|
|------------------------------------|-------------------------------|
|--7-------7------5-----------5------|--3------3---------------------|
|------------------------------------|----------------3-------3------|


Ab7 B Gb5
E S S S S E E S S S S E E S S S S E E S S S S E
|-----------------0-------------|-------------------------------|
|--2---------2-------------2----|--5--------5----7---------7----|
|--------0-----0-------0-----0--|-----0-0-----0------0-0-----0--|
|------2-------------2----------|-------------------------------|
|--0-------0------0------0------|--3------3------5-------5------|
|-------------------------------|-------------------------------|

BRIDGE

B Ebm Dbadd11
E S S S S E E S S S S E E S S S S E E S S S S E
|------------------------------|------------------------------------|
|--5--------5----5--------5----|--8---------8----7-------------7----|
|-----0-0-----0-----0-0-----0--|------0-0-----0----------0-0-----0--|
|------------------------------|------------------------------------|
|--3------3------3------3------|--7-------7------5-----------5------|
|------------------------------|------------------------------------|


B Ebm Dbadd11
E S S S S E E S S S S E E S S S S E E S S S S E
|------------------------------|------------------------------------|
|--5--------5----5--------5----|--8---------8----7-------------7----|
|-----0-0-----0-----0-0-----0--|------0-0-----0----------0-0-----0--|
|------------------------------|------------------------------------|
|--3------3------3------3------|--7-------7------5-----------5------|
|------------------------------|------------------------------------|


Ab B
E S S S S E E S S S S E E S S S S E E S S S S E
|----------------0-------------|------------------------------|
|--2--------2-------------2----|--5--------5----5--------5----|
|-------2-----2-------2-----2--|-----0-0-----0-----0-0-----0--|
|-----2-------------2----------|------------------------------|
|--0------0------0------0------|--3------3------3------3------|
|------------------------------|------------------------------|


Ebm Dbadd11 B
E S S S S E E S S S S E E S S S S E E S S S S E
|------------------------------------|------------------------------|
|--8---------8----7-------------7----|--5--------5----5--------5----|
|------0-0-----0----------0-0-----0--|-----0-0-----0-----0-0-----0--|
|------------------------------------|------------------------------|
|--7-------7------5-----------5------|--3------3------3------3------|
|------------------------------------|------------------------------|


Ebm Dbadd11 B
E S S S S E E S S S S E W
|------------------------------------|-------------------|
|--8---------8----7-------------7----|--5----------------|
|------0-0-----0----------0-0-----0--|--0----------------|
|------------------------------------|-------------------|
|--7-------7------5-----------5------|--3----------------|
|------------------------------------|-------------------|

REFREIN 3

Ebm Dbadd11 B Gb5
E S S S S E E S S S S E E S S S S E E S S S S E
|------------------------------------|-------------------------------|
|--8---------8----7-------------7----|--5--------5----3---------3----|
|------0-0-----0----------0-0-----0--|-----0-0-----0------0-0-----0--|
|------------------------------------|-------------------------------|
|--7-------7------5-----------5------|--3------3---------------------|
|------------------------------------|----------------3-------3------|


Ebm Dbadd11 Ab7
E S S S S E E S S S S E E S S S S E E S S S S E
|------------------------------------|-----------------0-------------|
|--8---------8----7-------------7----|--2---------2-------------2----|
|------0-0-----0----------0-0-----0--|--------0-----0-------0-----0--|
|------------------------------------|------2-------------2----------|
|--7-------7------5-----------5------|--0-------0------0------0------|
|------------------------------------|-------------------------------|


Ebm Dbadd11 B Gb5
E S S S S E E S S S S E E S S S S E E S S S S E
|------------------------------------|-------------------------------|
|--8---------8----7-------------7----|--5--------5----3---------3----|
|------0-0-----0----------0-0-----0--|-----0-0-----0------0-0-----0--|
|------------------------------------|-------------------------------|
|--7-------7------5-----------5------|--3------3---------------------|
|------------------------------------|----------------3-------3------|


Ab7 B Dbadd11
E S S S S E E S S S S E E S S S S E E S S S S E
|-----------------0-------------|-----------------------------------|
|--2---------2-------------2----|--5--------5----7-------------7----|
|--------0-----0-------0-----0--|-----0-0-----0----------0-0-----0--|
|------2-------------2----------|-----------------------------------|
|--0-------0------0------0------|--3------3------5-----------5------|
|-------------------------------|-----------------------------------|

OUTRO

Gb Fadd9- Ebm Dbsus4
E S S S S E E S S S S E E S S S S E E S S S S E
|------------------------------------|-----------------------------------|
|---8---------8----7------------7----|--5---------5----3------------3----|
|------0-0------0---------0-0-----0--|------0-0-----0---------0-0-----0--|
|------------------------------------|-----------------------------------|
|--10------10------9----------9------|--7-------7------5----------5------|
|------------------------------------|-----------------------------------|


B5 Dbsus4 Ebm Fadd9-
E S S S S E E S S S S E E S S S S E E S S S S E
|----------------------------------|-----------------------------------|
|--1--------1----3------------3----|--5---------5----7------------7----|
|-----0-0-----0---------0-0-----0--|------0-0-----0---------0-0-----0--|
|----------------------------------|-----------------------------------|
|--3------3------5----------5------|--7-------7------9----------9------|
|----------------------------------|-----------------------------------|


Ebm
^
H H
|--3-----------------||
|--0-----------------||
|--0-----------------||
|--2-----------------||
|--2-----------------||
|--------------------||

LEGENDA:
W - Hele noot
H - Halve noot
Q - Kwartnoot
E - Achtste noot
S - Zestiende noot

ProTabs promo.jpg

Onbeperkt en gratis toegang tot alle 25.000
Tabs & Chords en direct meespelen met

Artiest Liedje

...

Gitaarakkoorden krezip - I apologize

Dankzij de bladmuziek op deze pagina wordt het een stuk makkelijker om met de gitaar mee te spelen met I apologize van krezip De ProTabs van Gitaartabs worden door onze professionele gitaardocenten samengesteld. De tabs en chords zijn door leden zelf geplaatst. Deze undefined van krezip met I apologize is voor je geschreven door kaham

Tabs & Chords van krezip - I apologize

Bij de ProTabs delen we niet alleen de tablatuur maar ook de speelwijze van I apologize Met een beetje gitaar ervaring moet je dit gitaarliedje zeker kunnen spelen, maar als het niet lukt zijn we er altijd om je te helpen. Door een gratis account aan te maken krijg je niet alleen toegang tot deze tab ,akkoorden & tabs van I apologize maar kun je ook onbeperkt meespelen met een van de meer dan 25.000 andere tabs & chords in onze database.

Plaats opmerking

Beoordeel deze song

Rate UsDon’t love itNot greatGoodGreatLove itRate Us

Bedankt voor je beoordeling!