Everything

Gitaarliedjes, tabs & akkoorden (chords) everything - michael bublé

Songtype: Tab

arrow&v

Markeer als favoriet

Favoriet

Gemarkeerd als favoriet

Capo:

0

michael bublé

michael bublé

Song
Album
Categorie

everything

call me irresponsible

Downloads
65
Niveau
3
Geplaatst door
dave bleeker
ProTabs-promo.jpg

Intro
.laatste stuk van intro .
------------------------------------------.-----------------.---------
------7-----7---------7-----7---------7---.--7--------7-----.------3--
-----7--------9-7----7--------9-7----7----.----9-7------9-7-.--7---4--
----7---7-6---------7---7-6---------7---7-.6---------5------.--4---5--
------------------------------------------.-----------------.---------
------------------------------------------.-----------------.---------

Couplet
D Bm7 Emaj7
You're a falling star you're the get away car.
G A7 D A7
You're the line in the sand when I go too far.
D Bm7 Emaj7
You're the swimming pool on an August day.
G A7 D A7
And you're the perfect thing to say.
D Bm7 Emaj7
And you play it coy but it's kinda cute.
G A7 D A7
Ah, when you smile at me you know exactly what you do.
D Bm7 Emaj7
Baby don't pretend that you don't know it's true.
Gm A7 D
'cause you can see it when I look at you.

[Chorus:]
G A D Bm G A7 D
And in this crazy life and through these crazy times
D D7 G F#7 Bm7 A
It's you, it's you you make me sing.
Emaj7 Gm D
You're every line, you're every word, you're everything.

(Wanneer hij begint te zingen op "line" eerst het laatste gedeelte van de intro, dan het hele gedeelte weer)


You're a carousel you're a wishing well,
And you light me up, when you ring my bell.
You're a mystery you're from outer space,
You're every minute of my everyday.
And I can't believe, uh that I'm your man,
And I get to kiss you baby just because I can.
Whatever comes our way, ah we'll see it through,
And you know that's what our love can do.

[Chorus]

[solo]

D Bm Emaj7 Gm A D A (speel dit 4 keer, (2x solo en 2x la,la, la,)

So, la, la, la, la, la, la, la
So, la, la, la, la, la, la, la

[Chorus:] Word nu gespeeld in "A"
A B E C#m A B E Emaj7
And in this crazy life and through these crazy times
Emaj7 A G#7 C#m C#/B
It's you, it's you, you make me sing.
F#7 Am C#m C#/B
You're every line, you're every word, you're everything.
You're every song, and I sing along. (Wanneer hij begint te zingen op "song" speel tab beneden)
-----------------------------
-----9--------------9--------
-------11-9--------9---11-9--
---8--------8----7-----------
-----------------------------
-----------------------------

'Cause you're my everything.(na"everything"tab beneden spelen)
--------------------------------------.-----------------------------------
-----9-----9-----------9-------9------.----9-----9-----9-----------9------
-------------11-9-----9----------11-9-.---9--------------11-9-----9-------
---9---9-8-----------9---- 9-8--------.--9---9-8-----7-----------9----8-7-
--------------------------------------.-----------------------------------
--------------------------------------.-----------------------------------
Yeah, yeah . (vanaf hier begint hij te zingen lalala)
E F#7
So, la, la, la, la, la, la, la
Am E
So, la, la, la, la, la, la, la

ProTabs promo.jpg

Onbeperkt en gratis toegang tot alle 25.000
Tabs & Chords en direct meespelen met

Artiest Liedje

...

Gitaarakkoorden michael bublé - everything

Dankzij de bladmuziek op deze pagina wordt het een stuk makkelijker om met de gitaar mee te spelen met everything van michael bublé De ProTabs van Gitaartabs worden door onze professionele gitaardocenten samengesteld. De tabs en chords zijn door leden zelf geplaatst. Deze undefined van michael bublé met everything is voor je geschreven door dave bleeker

Tabs & Chords van michael bublé - everything

Bij de ProTabs delen we niet alleen de tablatuur maar ook de speelwijze van everything Met een beetje gitaar ervaring moet je dit gitaarliedje zeker kunnen spelen, maar als het niet lukt zijn we er altijd om je te helpen. Door een gratis account aan te maken krijg je niet alleen toegang tot deze tab ,akkoorden & tabs van everything maar kun je ook onbeperkt meespelen met een van de meer dan 25.000 andere tabs & chords in onze database.

Plaats opmerking

Beoordeel deze song

Rate UsDon’t love itNot greatGoodGreatLove itRate Us

Bedankt voor je beoordeling!