Duality

Gitaarliedjes, tabs & akkoorden (chords) Duality - slipknot

Songtype: Tab

arrow&v

Markeer als favoriet

Favoriet

Gemarkeerd als favoriet

Capo:

0

slipknot

slipknot

Song
Album
Categorie

Duality

Downloads
170
Niveau
2

Geplaatst door
[b]lack[a]ngel
ProTabs-promo.jpg

Tuning: B F# B E G# C#


Gitaar 1
|--------------------|--------------------|--------------------|
|--------------------|--------------------|--------------------|
|--------------------|--------------------|--------------------|
|--------------------|--------------------|--------------------| X2
|--------------------|--------------------|--------------------|
|---0-0-0-0-0-0-0-0--|---3-3-3-3-3-3-3-3--|---6-1-1-1-1-1-1-1--|

Gitaar 1 & 2
|--------------------|--------------------|--------------------|
|--------------------|--------------------|--------------------|
|--------------------|--------------------|--------------------|
|--------------------|--------------------|--------------------| X2
|---0-0-0-0-0-0-0-0--|---3-3-3-3-3-3-3-3--|---6-1-1-1-1-1-3-1--|
|---0-0-0-0-0-0-0-0--|---3-3-3-3-3-3-3-3--|---6-1-1-1-1-1-3-1--|

Gitaar 1 & 2
|--------------------|--------------------|--------------------|
|--------------------|--------------------|--------------------|
|--------------------|--------------------|--------------------|
|--------------------|--------------------|--------------------|
|---0-0-0-----0-0----|---0-0-0---0-1-0-1--|-3*B----------------|
|---0-0-0-----0-0----|---0-0-0---0-1-0-1--|--------------------|

X2

|--------------------|--------------------|--------------------|
|--------------------|--------------------|--------------------|
|--------------------|--------------------|--------------------|
|--------------------|--------------------|--------------------|
|---0-0-0-----0-0----|---0-0-0---0-1-0-1--|--------------------|
|---0-0-0-----0-0----|---0-0-0---0-1-0-1--|-3*~----------------|


Gitaar 1
|--------------------|--------------------|
|--------------------|--------------------|
|--------------------|--------------------|
|--------------------|--------------------| X10
|-0000-3333----------|--------------------|
|-----------555-777--|-333-555-111-000000-|
PM|--------------------------------------|

Gitaar 2 komt erbij bij de 2e keer
|--------------------|--------------------|
|--------------------|--------------------|
|-222----------------|--------------------|
|-----222-333--------|-333-555-333-22222--| X4
|-------------22222--|--------------------|
|--------------------|--------------------|

Gitaar 1 & 2
|--------------------|--------------------|
|--------------------|--------------------|
|--------------------|--------------------|
|--------------------|--------------------|
|--3-3-33-3-3-3-33---|--3-3-3-33-3-2-1-11-|
|--3-3-33-3-3-3-33---|--3-3-3-33-3-2-1-11-|

Gitaar 1 & 2
|--------------------|--------------------|--------------------|
|--------------------|--------------------|--------------------|
|--------------------|--------------------|--------------------|
|--------------------|--------------------|--------------------| X2
|-0-0-0-0-0-0-0-0-0--|-3-3-3-3-3-3-3-3-3--|-6-1-1-1-1-1-1-3-1--|
|-0-0-0-0-0-0-0-0-0--|-3-3-3-3-3-3-3-3-3--|-6-1-1-1-1-1-1-3-1--|

Gitaar 1
|--------------------|--------------------|
|--------------------|--------------------|
|--------------------|--------------------|
|--------------------|--------------------|
|-0000-3333----------|--------------------|
|-----------555-777--|-333-555-111-000000-|


Gitaar 1 & 2
|--------------------|--------------------|
|--------------------|--------------------|
|--------------------|--------------------|
|--------------------|--------------------|
|-----0000-3333------|-10\----3-5-1-0-----|
|--------------------|-10\----3-5-1-0-----|


Gitaar 1
|--------------------|--------------------|
|--------------------|--------------------|
|--------------------|--------------------|
|--------------------|--------------------| X4
|-0000-3333----------|--------------------|
|-----------555-777--|-333-555-111-000000-|


Gitaar 2 komt er bij de 2e x bij
|--------------------|--------------------|
|--------------------|--------------------|
|-222----------------|--------------------|
|-----222-333--------|-333-555-333-22222--| X2
|-------------22222--|--------------------|
|--------------------|--------------------|

Gitaar 1 & 2
|--------------------|--------------------|
|--------------------|--------------------|
|--------------------|--------------------|
|--------------------|--------------------|
|--3-3-33-3-3-3-33---|--3-3-3-33-3-2-1-11-|
|--3-3-33-3-3-3-33---|--3-3-3-33-3-2-1-11-|


Gitaar 1 & 2
|--------------------|--------------------|--------------------|
|--------------------|--------------------|--------------------|
|--------------------|--------------------|--------------------|
|--------------------|--------------------|--------------------| X4
|-0-0-0-0-0-0-0-0-0--|-3-3-3-3-3-3-3-3-3--|-6-1-1-1-1-1-1-3-1--|
|-0-0-0-0-0-0-0-0-0--|-3-3-3-3-3-3-3-3-3--|-6-1-1-1-1-1-1-3-1--|

Gitaar 2 speelt dit bij de derde en vierde ronde (aan het begin)
|------------------------|
|------------------------|
|------------------------|
|------------------------|
|-5-5/8-8/10-10/12h13p12~|
|------------------------|

Gitaar 1 en 2
|--------------------|--------------------|--------------------|
|--------------------|--------------------|--------------------|
|--------------------|--------------------|--------------------|
|--------------------|--------------------|--------------------|
|---0-0-0-----0-0----|---0-0-0---0-1-0-1--|-3*B----------------|
|---0-0-0-----0-0----|---0-0-0---0-1-0-1--|--------------------|

X2

|--------------------|--------------------|--------------------|
|--------------------|--------------------|--------------------|
|--------------------|--------------------|--------------------|
|--------------------|--------------------|--------------------|
|---0-0-0-----0-0----|---0-0-0---0-1-0-1--|--------------------|
|---0-0-0-----0-0----|---0-0-0---0-1-0-1--|-3*~----------------|


2e keer dit spelen:
|--------------------|--------------------|--------------------|
|--------------------|--------------------|--------------------|
|--------------------|--------------------|--------------------|
|--------------------|--------------------|--------------------|
|---0-0-0-----0-0----|---0-0-0---0-1-0----|-666333-------------|
|---0-0-0-----0-0----|---0-0-0---0-1-0----|-666333-------------|


Gitaar 1 & 2
|--------------------|--------------------|--------------------|
|--------------------|--------------------|--------------------|
|--------------------|--------------------|--------------------|
|--------------------|--------------------|--------------------|
|---1-1-1-----1-1----|---1-1-1---1-0-1----|-3*B----------------|
|---1-1-1-----1-1----|---1-1-1---1-0-1----|--------------------|


|--------------------|--------------------| X2
|--------------------|--------------------|
|--------------------|--------------------|
|--------------------|--------------------|
|---1-1-1-----1-1----|---1-1-1--1-0-0-6-1-|
|---1-1-1-----1-1----|---1-1-1--1-0-0-6-1-|

Gitaar 1 & 2
|--------------------|--------------------|
|--------------------|--------------------|
|--------------------|--------------------|
|--------------------|--------------------|
|--3-3-33-3-3-3-33---|--3-3-3-33-3-2-1-11-|
|--3-3-33-3-3-3-33---|--3-3-3-33-3-2-1-11-|


Gitaar 1 & 2
|--------------------|--------------------|
|--------------------|--------------------|
|--------------------|--------------------|
|--------------------|--------------------| Nier zeker hierover..
|--000333111444116---|--3336664447776610--|
|--000333111444116---|--3336664447776610--|

Gitaar 1 & 2
|--------------------|--------------------|--------------------|
|--------------------|--------------------|--------------------|
|--------------------|--------------------|--------------------|
|--------------------|--------------------|--------------------| X4
|-0-0-0-0-0-0-0-0-0--|-3-3-3-3-3-3-3-3-3--|-6-1-1-1-1-1-1-3-1--|
|-0-0-0-0-0-0-0-0-0--|-3-3-3-3-3-3-3-3-3--|-6-1-1-1-1-1-1-3-1--|

Gitaar 2 aan het begin van de 3e en vierde keer
|------------------------|
|------------------------|
|------------------------|
|------------------------|
|-5-5/8-8/10-10/12h13p12~|
|------------------------|

Gitaar 1 & 2
|--------------------|--------------------|--------------------|
|--------------------|--------------------|--------------------|
|--------------------|--------------------|--------------------|
|--------------------|--------------------|--------------------|
|12\0-0-0-----0000---|---0-0-0---0-1-0-1--|-3*B----------------|
|12\0-0-0-----0000---|---0-0-0---0-1-0-1--|--------------------|
PM|---|


|--------------------|--------------------|--------------------|
|--------------------|--------------------|--------------------|
|--------------------|--------------------|--------------------|
|--------------------|--------------------|--------------------|
|---0-0-0-----0000---|---0-0-0---0-1-0----|-666333-1-1-1-------|
|---0-0-0-----0000---|---0-0-0---0-1-0----|-666333-1-1-1-------|


|--------------------|--------------------|--------------------|
|--------------------|--------------------|--------------------|
|--------------------|--------------------|--------------------|
|--------------------|--------------------|--------------------|
|---0-0-(0)---000(0)-|---0-0-(0)-0-1-0-1--|--------------------|
|---0-0-(0)---000(0)-|---0-0-(0)-0-1-0-1--|-3*~----------------|


|--------------------|--------------------|--------------------|
|--------------------|--------------------|--------------------|
|--------------------|--------------------|--------------------|
|--------------------|--------------------|--------------------|
|---0-0-0-----0000---|---0-0-0---0-1-0-1--|-3*B----------------|
|---0-0-0-----0000---|---0-0-0---0-1-0-1--|--------------------|


|--------------------|--------------------|--------------------|
|--------------------|--------------------|--------------------|
|--------------------|--------------------|--------------------|
|--------------------|--------------------|--------------------|
|---0-0-0-----0-0----|---0-0-0---0-1-0-1--|--------------------|
|---0-0-0-----0-0----|---0-0-0---0-1-0-1--|-3*~----------------|


Nou nou.. Suc6 dr mee maar he =)
Keep the faith ;-)

ProTabs promo.jpg

Onbeperkt en gratis toegang tot alle 25.000
Tabs & Chords en direct meespelen met

Artiest Liedje

...

Gitaarakkoorden slipknot - Duality

Dankzij de bladmuziek op deze pagina wordt het een stuk makkelijker om met de gitaar mee te spelen met Duality van slipknot De ProTabs van Gitaartabs worden door onze professionele gitaardocenten samengesteld. De tabs en chords zijn door leden zelf geplaatst. Deze undefined van slipknot met Duality is voor je geschreven door [b]lack[a]ngel

Tabs & Chords van slipknot - Duality

Bij de ProTabs delen we niet alleen de tablatuur maar ook de speelwijze van Duality Met een beetje gitaar ervaring moet je dit gitaarliedje zeker kunnen spelen, maar als het niet lukt zijn we er altijd om je te helpen. Door een gratis account aan te maken krijg je niet alleen toegang tot deze tab ,akkoorden & tabs van Duality maar kun je ook onbeperkt meespelen met een van de meer dan 25.000 andere tabs & chords in onze database.

Plaats opmerking

Verstuur

Beoordeel deze song

Rate UsDon’t love itNot greatGoodGreatLove itRate Us

Bedankt voor je beoordeling!