Snuff

Gitaarliedjes, tabs & akkoorden (chords) Snuff - slipknot

Songtype: Tab

arrow&v

Markeer als favoriet

Favoriet

Gemarkeerd als favoriet

Capo:

0

slipknot

slipknot

Song
Album
Categorie

Snuff

all hope is gone

Downloads
355
Niveau
2
Geplaatst door
thisa
ProTabs-promo.jpg

d|-----------------4--|-----------------0--|
a|-----------------4--|-----------------0--|
f|-----------------4--|--1--------------1--|
c|--6------------6----|--2------------2----|
G|--6--6---6----------|--2--2---2----------|
D|--4----4---4--------|--0----0---0--------|

Short Instrumental 1 (clean guitar)

d|--------------------------------------|
a|--------------------------------------|
f|--------4--4^5--4---------------------|
c|--4--6-------------6--4--6--4--3^4^3--|
G|--------------------------------------|
D|--------------------------------------|

d|---------------------------------|
a|---------------------------------|
f|--------4--5^7--5^4--------------|
c|--4--6---------------6--4--6--4--|
G|---------------------------------|
D|---------------------------------|

Chorus (clean guitar)

So if you love me, let me go.
And run away before I know.
My heart is just too dark to care.
I can't destroy what isn't there.
Deliver me into my fate.
If I'm alone I cannot hate.
I don't deserve to have you.

d|-----------------|--4------------------|
a|-----------------|--4----4--5--4-------|
f|--3--3---3-3--3--|--4--4---------------|
c|--4--4---4-4--4--|--6------------6--6--|
G|--4--4---4-4--4--|--6------------6--6--|
D|--2--2---2-2--2--|--4------------4--4--|

My smile was taken long ago, If I can change I hope I never know.

d|--0--------|---------------|
a|--0--------|---------------|
f|--1--1--1--|---------------|
c|--2--2--2--|--6--6---4--4--|
G|--2--2--2--|--6--6---4--4--|
D|--0--0--0--|--4--4---2--2--|

Short Instrumental 2 (clean guitar)

d|--9--11--9--7----------------------|
a|--------------11--9--7--9^7--9--7--|
f|-----------------------------------|
c|-----------------------------------|
G|-----------------------------------|
D|-----------------------------------|

d|--9--11--9--7-------------------------|
a|--------------11--9--7--9^7--9--7--9--|
f|--------------------------------------|
c|--------------------------------------|
G|--------------------------------------|
D|--------------------------------------|

Second Verse

I still press your letters to my lips.
And cherish them in parts of me that savor every kiss.
I couldn't face a life without your light.
But all of that was ripped apart, when you refused to fight.

d|----------------|--0--0----------0--|
a|----------------|--0--0----------0--|
f|----------------|--1--1----------1--|
c|--6--6---6-6-6--|--2--2---2--2---2--|
G|--6--6---6-6-6--|--2--2---2--2---2--|
D|--4--4---4-4-4--|--0--0---0--0---0--|

Chorus (guitar distortion)

So save your breath, I will not hear.
I think I made it very clear.
You couldn't hate enough to love.
Is that supposed to be enough?
I only wish you weren't my friend.
Then I could hurt you in the end.
I never claimed to be a Saint.

d|-----------------|--4------------------|
a|-----------------|--4----4--5--4-------|
f|--3--3---3-3--3--|--4--4---------------|
c|--4--4---4-4--4--|--6------------6--6--|
G|--4--4---4-4--4--|--6------------6--6--|
D|--2--2---2-2--2--|--4------------4--4--|

My own was banished long ago,
it took the death of hope to let you go.

d|-----------|---------------|
a|-----------|---------------|
f|--1--1--1--|---------------|
c|--2--2--2--|--6--6---4--4--|
G|--2--2--2--|--6--6---4--4--|
D|--0--0--0--|--4--4---2--2--|

Short Instrumental 3 (clean guitar)

d|--9--11--9--7----------------------|
a|--------------11--9--7--9^7--9--7--|
f|-----------------------------------|
c|-----------------------------------|
G|-----------------------------------|
D|-----------------------------------|

d|--9--11--9--7-------------------------|
a|--------------11--9--7--9^7--9--7--9--|
f|--------------------------------------|
c|--------------------------------------|
G|--------------------------------------|
D|--------------------------------------|

Final Chorus (guitar distortion)

So break yourself against my stones.
And spit your pity in my soul.
You never needed any help.
You sold me out to save yourself.
And I won't listen to your shame.
You ran away, you're all the same.
Angels lie to keep control.

d|-----------------|-----------------|
a|-----------------|-----------------|
f|--3--3--3--3--3--|-----------------|
c|--4--4--4--4--4--|--6--6--6--6--6--|
G|--4--4--4--4--4--|--6--6--6--6--6--|
D|--2--2--2--2--2--|--4--4--4--4--4--|

My love was punished long ago,
if you still care, don't ever let me know.

d|-----------|-------------------|
a|-----------|-------------------|
f|--1--1--1--|-------------------|
c|--2--2--2--|--6--6---4--4---6--|
G|--2--2--2--|--6--6---4--4---6--|
D|--0--0--0--|--4--4---2--2---4--|

Outro (clean guitar)

If you still care, don't ever let me know.

d|--4-----------|--0--0--0--0--|
a|--4-----------|--0--0--0--0--|
f|--4-----------|--1--1--1--1--|
c|--6--6--6--6--|--2--2--2--2--|
G|--6--6--6--6--|--2--2--2--2--|
D|--4--4--4--4--|--0--0--0--0--|

ProTabs promo.jpg

Onbeperkt en gratis toegang tot alle 25.000
Tabs & Chords en direct meespelen met

Artiest Liedje

...

Gitaarakkoorden slipknot - Snuff

Dankzij de bladmuziek op deze pagina wordt het een stuk makkelijker om met de gitaar mee te spelen met Snuff van slipknot De ProTabs van Gitaartabs worden door onze professionele gitaardocenten samengesteld. De tabs en chords zijn door leden zelf geplaatst. Deze undefined van slipknot met Snuff is voor je geschreven door thisa

Tabs & Chords van slipknot - Snuff

Bij de ProTabs delen we niet alleen de tablatuur maar ook de speelwijze van Snuff Met een beetje gitaar ervaring moet je dit gitaarliedje zeker kunnen spelen, maar als het niet lukt zijn we er altijd om je te helpen. Door een gratis account aan te maken krijg je niet alleen toegang tot deze tab ,akkoorden & tabs van Snuff maar kun je ook onbeperkt meespelen met een van de meer dan 25.000 andere tabs & chords in onze database.

Plaats opmerking

Beoordeel deze song

Rate UsDon’t love itNot greatGoodGreatLove itRate Us

Bedankt voor je beoordeling!