8th commandment

Gitaarliedjes, tabs & akkoorden (chords) 8th commandment - sonata arctica

Songtype: Tab

arrow&v

Markeer als favoriet

Favoriet

Gemarkeerd als favoriet

Capo:

0

sonata arctica

sonata arctica

Song
Album
Categorie

8th commandment

Downloads
12
Niveau
2
Geplaatst door
[b]lack[a]ngel
ProTabs-promo.jpg

Een halve stap naar beneden tunen

Intro (Gtr.1)
E----------------------------------------------------------------------------------|
B----------------------------------------------------------------------------------|
G*---------------------------------------------------------------------------------|
D*--0-0-0-0-3p0-0-2p0-0-5p0-0-0-0-3p0-0-2h3-0-0-0-0-8p0-0-7p0-0-5p0-0-3p0-0-0-0-2h3|
A----------------------------------------------------------------------------------|
E----------------------------------------------------------------------------------|


x4
E----------------------------------------------------------------------------------|
B-------------------------------------------------------------------------------|--|
G------------------------------------------------------------------------------*|--|
D--0-0-0-0-3p0-0-2p0-0-5p0-0-0-0-3p0-0-2h3--------2h3p2-------5p3p2---3p2------*|--|
A-------------------------------------------1h3h5-------5p3p1-------5-----5p4~--|--|
E----------------------------------------------------------------------------------|

Intro (Gtr.2)
E----------------------------------------------------------------||----------------|
B----------------------------------------------------------------||----------------|
G----------------------------------------------------------------||----------------|
D-7--------------------------------------------------------------||--7\-----7\-----|
A-5-5-5-5-5-5-5-5-5-5-5-5-5-5-5-5-5-5-5-5-5-5-5-5-5-5-5-5-5-5-5--||--5\-----5\-----|
E----------------------------------------------------------------||----------------|


E----------------------------------------------------------------------------------|
B----------------------------------------------------------------------------------|
G----------------------------------------------------------------------------------|
D-------6-6---7\-----7-7\---------6-6---7------------------------------------------|
A--5-5--4-4---5\-----5-5\----5-5--4-4---5-5-5-5-5-5-5-5-5-5-5-5-5-5-5-5-5-5-5-5-5-5|
E--6-6-----------------------6-6---------------------------------------------------|


E----------------------------------------------------------------------------------|
B----------------------------------------------------------------------------------|
G----------------------------------------------------------------------------------|
D-----------------------/7---------------------------------------------------------|
A-5-5-5---------4-4-4-4-/5-5-5-5-5-5-5-5-5-5-5-5-5-5-5-5-5-5-5-5-5-5-5-5---------4-|
E-------6-6-6-6----------------------------------------------------------6-6-6-6---|

einde Intro Verse 1
E---------------------------------------------------------------||----------------|
B---------------------------------------------------------------||----------------|
G---------------------------------------------------------------||*---------------|
D---------/7----------------------------------------------------||*--7------------|
A-4-4-4-4-/5-5-5-5-5-5-5-5-5-5-5-5-5-5-5-5-5-5-5-5-5-5-5-5-5-5--||---5-5-5-5-5-5-5|
E---------------------------------------------------------------||----------------|


E---------------------------------------------------------------------------------|
B---------------------------------------------------------------------------------|
G---------------------------------------------------------------------------------|
D-7-7-----------------7-------------7-7---------------5---------------5-5---------|
A-5-5--5-5-5-5-5-5-5--5-5-5-5-5-5-5-5-5--5-5-5-5-5-5--1-1-1-1-1-1-1-1-1-1--1-1-1-1|
E---------------------------------------------------------------------------------|

x2 Bridge
E---------------------------------------------------------------------------------|
B--------------|------------------------------------------------------------------|
G------7--6~--*|------------------------------------------------------------------|
D------7--7~--*|--5----5---0-0-3p0-0-2p0-0-5p0-0-0-0-3p0-0-2h3-0-0-8p0-0-7p0-0-5p0|
A-1-1----------|--3----3----------------------------------------------------------|
E---------------------------------------------------------------------------------|


Refrein
E---------------------------------------------------------------------------------|
B--------------------------------------------------|-----------|----------|-------|
G--------------------------------------------------|--Verse-2--|--Bridge--|*------|
D-0-3p0-00-7p0-0-5p0-0-3p0-0----5----5-------------|-----------|----------|*--7--5|
A-------------------------------3----3----7----7---|-----------|----------|---5--3|
E-----------------------------------------5----5----------------------------------|


x2 Gitaar Solo 1
E---------------------------------------------17-13----------12-13-/15-12---------|
B-----------------------------------------|---------15----15--------------13------|
G---------------------------------7--7---*|------------14--------------------12---|
D--3-----5----7---7--5--3----5----7--6---*|-------------------------------------14|
A--1-----3----5---5--3--1----3----7-------|---------------------------------------|
E---------------------------------5-----------------------------------------------|

E----------------12-15-12/13-10----------------------------------10-------9-------|
B-------------13----------------11----------------------------11----11------10----|
G----------12----------------------10----------10h12----10h12----------12------9--|
D-------14----------------------------12----12-------12--------------------------1|
A-15-15----------------------------------13---------------------------------------|
E---------------------------------------------------------------------------------|

E-----------------------------------17-13----------12-13-/15-12-------------------|
B-----------------------------------------15----15--------------13----------------|
G-----/-7h9h10-7\6h7h9-6-/7------------------14--------------------12-------------|
D1--------------------------7---7--------------------------------------14-------14|
A--12-------------------------8~------------------------------------------15-15---|
E---------------------------------------------------------------------------------|

E-------12-15-12/13-10----------------------------------10-------9----------------|
B----13----------------11----------------------------11----11------10-------------|
G-12----------------------10----------10h12----10h12----------12------9--------/-7|
D----------------------------12----12-------12--------------------------11--------|
A-------------------------------13-----------------------------------------12-----|
E---------------------------------------------------------------------------------|

E---------------------------------------------------------------------------------|
B------8-10-8---------------------------------|-------------|----------|----------|
G-9-10--------10--9---------------------------|---Couplet-3---|--Bridge--|--Refrein--|
D--------------------------5-7-8-7-5----------|-------------|----------|----------|
A--------------------5-7-8-----------8-7-5~-\-|-------------|----------|----------|
E---------------------------------------------------------------------------------|

Gitaar Solo 2
E---------------15~--p13p12------15-17-18--17-15h17p15\13--12------15-12h15p12----|
B------------|--------------15---------------------------------15--------------13-|
G------------|--------------------------------------------------------------------|
D--7\--7-7\--|--------------------------------------------------------------------|
A--5\--5-5\--|--------------------------------------------------------------------|
E---------------------------------------------------------------------------------|

Gitaar Solo 3
E-------------------12h15h20p15p12------------------------------------------------|
B----------------13----------------13--------------|-------------------|----------|
G-12~---------12----------------------12-----------|--Keyboard-Solo-1--|----------|
D----------14----------------------------14--------|-------------------|--------12|
A-------15----------------------------------15~~---|-------------------|--13-15---|
E---------------------------------------------------------------------------------|


E----------------------------------------15-17-18~-17-15-------------/20--18-17h18|
B-------------------------------15-16-18------------------18-17-15----------------|
G-------12-14-15-------14-15-17---------------------------------------------------|
D-13-15----------15-17------------------------------------------------------------|
A---------------------------------------------------------------------------------|
E---------------------------------------------------------------------------------|

Ep17-15---------------------------------------------------------------------------|
B-------18-17--15-17-17b(18)-r17~~\15--16~~---|-------------------|---------------|
G---------------------------------------------|--Keyboard-Solo-2--|---------------|
D---------------------------------------------|-------------------|--7\---------\-|
A---------------------------------------------|-------------------|--5\---------\-|
E---------------------------------------------------------------------------------|

Refrein (2)
E---------------------------------------------------------------------------------|
B-------------------|-------------------------------------------------------------|
G-------------------|-------------------------------------------------------------|
D-------------------|------7------5------3------3------5------5------7------7-----|
A-7-7-7-7-7-7-7-7---|--5-5-5--3-3-3--1-1-1--1-1-1-/3-3-3--3-3-3--5-5-5--5-5-5--5-5|
E-5-5-5-5-5-5-5-5-----------------------------------------------------------------|

Refrein(3)
E---------------------------------------------------------------------------------|
B------------------------------------------------|--------------------------------|
G-----------------------------------------7--6---|*-------------------------------|
D-7------5------3------3-------5------5---7--7---|*--9--7--5----7----9---9--7--5--|
A-5--3-3-3--1-1-1--1-1-1--/3-3-3--3-3-3---7------|---7--5--3----5----7---7--5--3--|
E-----------------------------------------5---------------------------------------|


x2
E---------------------------||
B----------------|----------||
G-------9--8~---*|----------|| end
D--7----9--9~---*|----------||
A--5----9--------|---2-\----||
E-------7------------0-\----||


Jep Jep.. Zeer lastig
Probeer er met het liedje uit te komen

ProTabs promo.jpg

Onbeperkt en gratis toegang tot alle 25.000
Tabs & Chords en direct meespelen met

Artiest Liedje

...

Gitaarakkoorden sonata arctica - 8th commandment

Dankzij de bladmuziek op deze pagina wordt het een stuk makkelijker om met de gitaar mee te spelen met 8th commandment van sonata arctica De ProTabs van Gitaartabs worden door onze professionele gitaardocenten samengesteld. De tabs en chords zijn door leden zelf geplaatst. Deze undefined van sonata arctica met 8th commandment is voor je geschreven door [b]lack[a]ngel

Tabs & Chords van sonata arctica - 8th commandment

Bij de ProTabs delen we niet alleen de tablatuur maar ook de speelwijze van 8th commandment Met een beetje gitaar ervaring moet je dit gitaarliedje zeker kunnen spelen, maar als het niet lukt zijn we er altijd om je te helpen. Door een gratis account aan te maken krijg je niet alleen toegang tot deze tab ,akkoorden & tabs van 8th commandment maar kun je ook onbeperkt meespelen met een van de meer dan 25.000 andere tabs & chords in onze database.

Plaats opmerking

Beoordeel deze song

Rate UsDon’t love itNot greatGoodGreatLove itRate Us

Bedankt voor je beoordeling!