Letter to dana

Gitaarliedjes, tabs & akkoorden (chords) Letter to dana - sonata arctica

Songtype: Tab

arrow&v

Markeer als favoriet

Favoriet

Gemarkeerd als favoriet

Capo:

0

sonata arctica

sonata arctica

Song
Album
Categorie

Letter to dana

Downloads
1710
Niveau
2
Geplaatst door
[b]lack[a]ngel
ProTabs-promo.jpg

Naar beneden tunen, een halve stap

Clean
E------0----------3----------0-----------3------------0---------3----------0-------|
B--------0----------3----------1-----------2------------0---------3----------1-----|
G----------0----------4----------0-----------3------------0---------4-----------0--|
D----------------------------------2-\0--------0----------------------------------2|
A-----------------------5-3-------------------------------------------5-3----------|
E--0-----------3-----------------------------------0---------3---------------------|

E--------0---------3----------0----------3------------0---------3----------------0-|
B----------0---------3----------1----------2------------0---------3------------1---|
G------------0---------4----------0----------3------------0---------4--------0-----|
D~~---------------------------------2\-0-------0---------------------------2-------|
A------------------------5-3------------------------------------------5-\3---------|
E----0----------3----------------------------------0---------3------------------

Couplet 1
E----------------0----------||-------0--------3-----------0-----------------3------|
B-1------------1---1--------||----------0-------2-----------0----------3------3----|
G---0~-------0-------0~~----||--------------------3-----------0----------0------0--|
D----------2----------------||-------------0--------0-----------2------------------|
A--------3------------------||-----------------------------------------------------|
E---------------------------||---0---------------------0-----------/3--------------|

E-------------------0-------------0--------------------0---------------------3-----|
B-----1---------------0-------------1----1---------------0-------------3--------3--|
G-------2---------------0--------------2----2--------------0-------------0---------|
D---------2---------------2--------------------2--------------2~~------------------|
A--0--------0-----------------0----------------------------------------------------|
E---------------0---------------------------------\0----------------3--------------|

E----------3-----/3p2-------------0-------------3---------0----------------------3-|
B------------2--------3--------------0------------2---------0-----------3----------|
G--0-----------3--------2~~-------------------------3---------0-----------0--------|
D-------0----------------------------------/0-------------------2-------------0----|
A----------------------------------------2-----------------------------------------|
E-----------------------------0------------------------0------------/3-------------|

E-----------------------0----------0-------------------0---------------------3-----|
B-3--------1--------------0----------1----1--------------0-----------3----------3--|
G----0-------2--------------0-----------2----2-------------------------0-----------|
D--------------2--------------------------------2--------------------------0-------|
A-------0--------0--------------0----------------------------2~--------------------|
E-------------------0------------------------------\0-------------3--------------

2 gitaren:
E-------------2--------------------------------------------------------------------|
B-----------3---3---3~~---|------------10-----/12-10h12p10-------------------------|
G-0-------2-------2-------|---9-11-12-----12---------------12--9--11-12-11~~--\9-11|
D------\0-----------------|------------------------------------5---------7---------|
A-------------------------|---------2-----------5--------------3---------5---------|
E-----------------------------------0-----------3----------------------------------|

3 gitaren:
E----------------------------------------------------------------------------------|
B-----10-----/12-10h12p10-------------8-10-12--13-12--/15-13h15p13--12--8--10-12-10|
G-12-----12---------------12---9~~----9-11-12--14-12--/16-14h16p14--12--9--11-12-11|
D------------------------------5~~--------------------------------------5---------7|
A--2----------5----------------3~~----------2-----------5---------------3---------5|
E--0----------3-----------------------------0-----------3--------------------------|

Couplet 2
E-------------------------------------------------------------------------------------------------|
B~~--8-10-12--13-12--/15-13h15p13-\12--8~~----|------------------------------------|
G~~--9-11-12--14-12--/16-14h16p14-\12--9~~----|------------------------------------|
D--------------------------------------5~~----|--------x--\-----/9-----7---9-------|
A----------2-----------5---------------3~~----|--------x---\----/7-----5---7---\-5-|
E----------0-----------3-------------------------------------------------------\-3-|

Refrein
E----------------------------------------------------------------------------------|
B-------------------------------------------|--------------------------------------|
G-------------------------------------------|-------7--------------------7---------|
D---------9-----------9-----------5/7~~-----|--9----5----5----7-----9----5----5----|
A----7----7-----7-----7----\-5----3/5~~-----|--7---------3----5-----7---------3----|
E----5----------5----------\-3-----------------------------------------------------|

E----------------------------------------------------------------------------------|
B-----------------------------------------|----------------------------------------|
G-----------7-------------------7---------|----------------------------------------|
D-5---/9----5----5----7----9----5----5----|--5--4--2~~---/9-----5---------------2~-|
A-3---/7---------3----5----7---------3----|--3--2--0~~---/7-----3-----5-----0-2-0~-|
E---------------------------------------------------------------------3---3--------|

Gitaar Solo 1
E----------------------------------------------------------------------------------|
B------------------------|-------------10--12-b(13)--r12--10h12p10----10~~---------|
G------------------------|--/9--11-12------------------------------12--------------|
D--9----\7---7---7---7---|--------------------------------------------------0~~----|
A--7----\5---5---5---5---|------------------------------------------------------5/7|
E----------------------------------------------------------------------------------|

E----------------------------------------------------------------------------------|
B-slight---------------------------------------------------------------------------|
G--A.H----------------------------------------------------------/9--7-9-7----------|
D---4~-5\4--/5b(7)--r5-4-5~~--/-9--9h10-9-7-9--9--9h10-9-7-7~--------------9~--7-7b|
A----------------------------------------------------------------------------------|
E----------------------------------------------------------------------------------|

Solo 2
E----------------------10-10b(12)-r10-----/14~~---------------14~~---12h14---------|
B--------------8-10-12----------------12----------|-------14-----------------15-14-|
G--------7---9------------------------------------|--/11---------------------------|
D(r9)-r-------------------------------------------|--------------------------------|
A-------------------------------------------------|--------------------------------|
E----------------------------------------------------------------------------------|

E------------------------------------------------------------/5p4------------------|
B-15~--14b(15)-r14-\12-10--h12--\9~---10-\-7~---------------------5----/7----------|
G-----------------------------------------------6~------------------4------7~~---9b|
D--------------------------------------------------10-9-7--------------------------|
A---------------------------------------------------------9------------------------|
E----------------------------------------------------------------------------------|

E----------------------------------------------------------------------------------|
B------7----------------------------|----------------------------------------------|
G(11)-----\9p6----------------------|----------------------------------------------|
D--------------9p7-6h7----9-7-9~~---|--9----9--\-7-----7--\-5----------------9----9|
A----------------------9~-----------|--7----7--\-5-----5--\-3----2-----2-----7----7|
E----------------------------------------------------------------0-----0-----------|

E----------------------------------------------------------------------------------|
B----------------------------------------------------------------------------------|
G----------------------------------------------------------------------------------|
D--7----5----5----5---\-4---2-----------5----/-7----/-9-----2---------5--5-5-5---9-|
A--5----3----3----3---\-2---0-----5-----3----/-5----/-7-----0----5----3--3-3-3---7-|
E---------------------------------3------------------------------3-----------------|

Solo3
E----------------------------------------------------------------10~---------------|
B----------|--/8-----/8---10--b(11)-r10-\8--------------------11------13--11-\10---|
G----------|------7------------------------10--------------10--------------------12|
D--9-9-9---|----------------------------------12p10~---/12-------------------------|
A--7-7-7---|-----------------------------------------------------------------------|
E----------------------------------------------------------------------------------|

E------------/15~--18b(20)~-r18-\17-18~------15/17-18-17-b(18)-r17-p15-------------|
B---------15-------------------------------15-.--.--.--.---------------18p15h18-/20|
G-11-/12---------------------------------15----------------------------------------|
D----------------------------------------------------------------------------------|
A----------------------------------------------------------------------------------|
E----------------------------------------------------------------------------------|

Refrein
E----------------------------------------------------------------------------------|
B~---|-----------------|---------------|-------------------------------------------|
G----|--Piano-Solo--|----couplet-3----|-------------------------------------------|
D----|-----------------|--(geen-gitaar)--|--x\------------8----10---------------8~~--|
A----|-----------------|---------------|--x\--5----8----6-----8-----5----8----6~~--|
E---------------------------------------------3----6----------------3----6---------|

x3
E----------------------------------------------------------------------------------|
B---------------------------------------|------------------------------------------|
G---------------------------------------|*----------------------------------------*|
D------------8----10--------------8~~---|*------------8---10--------------8----8--*|
A--5----8----6----8-----5----8----6~~---|---5----8----6----8----5----8----6----6---|
E--3----6---------------3----6--------------3----6--------------3----6-------------|

E----------------------------------------------||
B----------------------------------------------||
G----------------------------------------------|| einde
D------------8----10----------------8~~--------||
A--5----8----6----8-----5-----8-----6~~--------||
E--3----6---------------3-----6----------------||

ProTabs promo.jpg

Onbeperkt en gratis toegang tot alle 25.000
Tabs & Chords en direct meespelen met

Artiest Liedje

...

Gitaarakkoorden sonata arctica - Letter to dana

Dankzij de bladmuziek op deze pagina wordt het een stuk makkelijker om met de gitaar mee te spelen met Letter to dana van sonata arctica De ProTabs van Gitaartabs worden door onze professionele gitaardocenten samengesteld. De tabs en chords zijn door leden zelf geplaatst. Deze undefined van sonata arctica met Letter to dana is voor je geschreven door [b]lack[a]ngel

Tabs & Chords van sonata arctica - Letter to dana

Bij de ProTabs delen we niet alleen de tablatuur maar ook de speelwijze van Letter to dana Met een beetje gitaar ervaring moet je dit gitaarliedje zeker kunnen spelen, maar als het niet lukt zijn we er altijd om je te helpen. Door een gratis account aan te maken krijg je niet alleen toegang tot deze tab ,akkoorden & tabs van Letter to dana maar kun je ook onbeperkt meespelen met een van de meer dan 25.000 andere tabs & chords in onze database.

Plaats opmerking

Beoordeel deze song

Rate UsDon’t love itNot greatGoodGreatLove itRate Us

Bedankt voor je beoordeling!