My land

Gitaarliedjes, tabs & akkoorden (chords) my land - sonata arctica

Songtype: Tab

arrow&v

Markeer als favoriet

Favoriet

Gemarkeerd als favoriet

Capo:

0

sonata arctica

sonata arctica

Song
Album
Categorie

my land

Downloads
Niveau
2
Geplaatst door
[b]lack[a]ngel
ProTabs-promo.jpg

Naar beneden tunen, halve stap

Intro (Gtr.1)
E--15-14----------/12-10--------------10~~-------------12~~-----15-14-----15-14----|
B--------15----12-----------------------------------------------------15--------15-|
G------------------------12~----11-12--------\12-11-12-----------------------------|
D----------------------------------------------------------------------------------|
A----------------------------------------------------------------------------------|
E----------------------------------------------------------------------------------|

Gtr 2
E-\12-10-------15-14-----15-14----\12-10-/19~~-------------------------------------|
B--------------------15--------15----------------|--------3-------3---------3------|
G--------12~-------------------------------------|----------0-------------0----0---|
D-----------------------------------(Gtr.3:)-x\--|------4-----4---------4--------4-|
A--------------------------------------------x\--|----2---------2-----3------------|
E---------------------------------------------------0------------------------------|

E---0-----------------------------0~~----------------------------------------------|
B-------------3--------------3------------------3--------------3--------------3----|
G---------------0----------0----0-----------------0--------------0----------0---0--|
D-----------4-----4------4--------------------4-----4--------4-----4------4-------4|
A-3-------2------------3--------------------2---------2----2---------2-/3----------|
E-------0---------------------------------0--------------0-------------------------|


E--0-------------------------------------------------------0------------||---------|
B----3---3-------------3--------------3--------------3-------3---3------||---------|
G------0---0-------------0--------------0----------0---0-------0---0----||*--------|
D------------4-------4-----4--------4-----4------4-------4-----------4--||*--------|
A------------------2---------2----2---------2-/3------------------------||---2-----|
E---------------\0--------------0---------------------------------------||---0-0-0-|

x2 Couplet 1
E----------------------------------------------------------------------------------|
B--------------------------------------------------------------|-------------------|
G-------------------------------------------------------------*|*------------------|
D-----------------------------/5-----5-----5-5---5------------*|*------------------|
A-2-----2-2---2-----2---2-----/3-3-3-3-3-3-3-3-3-3-3-/5-3-2----|-------------------|
E-0-0-0-0-0-0-0-0-0-0-0-0-0---------------------------------3-----0-0-0-0-0-0--0-0-|


E----------------------------------------------------------------------------------|
B----------------------------------------------------------------------------------|
G----------------------------------------------------------------------------------|
D----------------------------------------------------------------------------------|
A----------------------------------------------------------------------------------|
E-0-0-0--0-0-0-0-0--0-0-0-0--0-0-0--0-0-0--0-0-0-0-0-0--0-0-0-0--0-0-0-0-0--0-0-0-0|


E----------------------------------------------------------------------------------|
B----------------------------------------------------------------------------------|
G----------------------------------------------------------------------------------|
D----------------------------------------------------------------------------------|
A----------------------------------------------------------------------------------|
E-0-0-0--0-0-0--0-0-0-0-0-0--0-0-0-0--0-0-0-0-0--0-0-0-0--0-0-0--0-0-0--0-0-0-0-0-0|



E------------------------------------------------|----------------------|----------|
B------------------------------------------------|----------------------|-Wah-wah..|
G------------------------------------------------|--------7------------*|--/12-\-11|
D----------------------------------/7-7--5---9~~-|--\5----5---\4~~--\--*|----------|
A----------------------------------/5-5--3---7~~-|--\3----5----------\--|--/10-\-9-|
E--0-0-0-0--0-0-0-0-0--0-0-0-0--0----------------|----------------------|----------|

Refrein
E--------------------||------------------------------------------------------------|
B......|-------------||------------------------------------------------------------|
G--\-4---------------||------------------------------------------------------------|
D--------5----/5--4~~||---------------------------------/5-----5-----5-----5-----5-|
A--\-2---3-----------||--2-----2-----2-----2-----2---2--/3-3-3-3-3-3-3-3-3-3-3-3-3-|
E--------------------||--0-0-0-0-0-0-0-0-0-0-0-0-0-0-0-----------------------------|


E----------------------------------------------------------------------------------|
B----------------------------------------------------------------------------------|
G----------------------------------------------------------------------------------|
D---5----------------------------------/5-----5-----5-----5-----5-5-5-5----2---4---|
A-3-3--\2-----2-----2-----2-----2---2--/3-3-3-3-3-3-3-3-3-3-3-3-3-3-3-3-\2-0---2---|
E------\0-0-0-0-0-0-0-0-0-0-0-0-0-0-0----------------------------------------------|

Solo
E----------------------------------------------------------------------------------|
B------------------------------------------|---------------------------------------|
G------------------------------------------|------------------/12-11-9-9--7-/-9-7-7|
D--9---7---5----2---4----------------------|------9--7-5h7-------------------------|
A--7---5---3----0---2----3-2---2-----------|--7~~----------5-----------------------|
E----------------------------5---3-5-2-3-\-----------------------------------------|

E----------------------------------------------------------------------------------|
B------/13-12-10--------------------------------------------------------12-14-15~~-|
G----------------12-11-9\8----------------9-11-12~~--/12-14-12-11-12-14------------|
D-7h9----------------------10--10-9-10-12------------------------------------------|
A----------------------------------------------------------------------------------|
E----------------------------------------------------------------------------------|


E----------------------------------------------------------------------------------|
B-15-13-12----12-13-12----12-------------------------------------------------------|
G----------14----------14----14-12-11-14-12-11----12-11-------11-------------------|
D----------------------------------------------14-------14-12----14-12-10-14-12-10-|
A----------------------------------------------------------------------------------|
E----------------------------------------------------------------------------------|

E----------------------------------------------------------------------------------|
B------------------------------------------------------------------15b(17)---17r15-|
G----------------------------------------------------------------------------------|
D----12-10-------10----------------------------------------------------------------|
A-14-------14-12----14-12-10-14-12-10----12-10-------10----------------------------|
E-------------------------------------14-------14-12----14-12-10-------------------|


E----15--14h15p14----A.H.----------------------------------------------------------|
B\12--------------15-15~~------T-----T-----------T-----T-----------T-----T---------|
G--------------------------12h16p12h16p12p9--12h17p12h17p12p9--12h16p12h16p12p9--12|
D----------------------------------------------------------------------------------|
A----------------------------------------------------------------------------------|
E----------------------------------------------------------------------------------|

E------------------------------------------------------2 gitaren:----------------|
B--T-----------T-----------------------------------------------------------------13|
Gh16p12p9--12h17p12p9--12-/16-17-16-14----------------------------------12-14-15-14|
D--------------------------------------17-16-14----------------12-13-15-14-15-17---|
A-----------------------------------------------17-15~~--13-15-14-15-17------------|
E--------------------------------------------------------15-17---------------------|

Couplet 3
E----------15-17-----18~~--17-18-\15~--p13h15~----18~------------------------------|
B-15-16/18-17-18--|--20~~--18-20-\16~--p15h16~----20~----------15---------|--------|
G-14-17/19--------|-------------------------------------14/15--15---12~~--|--------|
D-----------------|-------------------------------------15/17-------13~~--|--------|
A-----------------|-------------------------------------------------------|--2-----|
E----------------------------------------------------------------------------0-0-0-|

E----------------------------------------------------------------------------------|
B----------------------------------------------------------------------------------|
G----------------------------------------------------------------------------------|
D----------------------------/5-----5-----5-5---5----------------------------------|
A-2-----2-2---2-----2---2----/3-3-3-3-3-3-3-3-3-3-3-/5-3-2----2-----2-----2-2---2--|
E-0-0-0-0-0-0-0-0-0-0-0-0-0--------------------------------3--0-0-0-0-0-0-0-0-0-0-0|

Bridge
E----------------------------------------------------------------------------------|
B----------------------------------------------------------|-----------------------|
G----------------------------------------------------------|-----------------------|
D------------/5-5-5-----4---------5-/-7-\-5--5-5-5--5-5-5--|--5----9-----------9-7-|
A---2---2----/3-3---3-2---3-2-3-2-3-/-5-\-3--3-3-3--3-3-3--|--3----7----7-9-10-----|
E-0-0-0-0-0------------------------------------------------------------------------|


E----------------------------------------------------------------------------------|
B-------------------------------|----------|---------------------------------------|
G-------------------------------|--Refrein--|---------------------------------------|
D------7------------5---5--4~~--|----------|-------5---------5----/10--10----------|
A-10-9---10-9-7-9---3-----------|----------|--2----3----2----3----/8----8---7-7-7-7|


E----------------------------------------------------------------------------------|
B----------------------------------------------------------------------------------|
G----------------------------------------------------------------------------------|
D---9-----------9-----------9-----------9----10-------------9-----------9----------|
A-7-7-7-7-7-7-7-7-7-7-7-7-7-7-7-7-7-7-7-7----8----7-7-7-7-7-7-7-7-7-7-7-7-7-7-7-7-7|
E----------------------------------------------------------------------------------|


Gitaar Riff (en van de piano)
E----------------------------------------------------------------------------------|
B-----------------|-------------------------------------------------------------15-|
G-----------------|---------------------14-16-17\16~-------------------14-16-17----|
D-9-----------9---|--14-16-17-\16-17-19--------------14-16-17\16-17-19-------------|
A-7-7-7-7-7-7-7---|----------------------------------------------------------------|
E----------------------------------------------------------------------------------|


E----------------------------------------------------------------------------------|
B-17~-------------------------------------------------------------------|----------|
G------------------------14-16-17\16~---17-16-14~--16-14----------------|--Piano|
D------14-16-17\16-17-19---------------------------------17-17--16-14\--|----------|
A-----------------------------------------------------------------------|----------|
E----------------------------------------------------------------------------------|

E--------------------------------Gtr.2:---------------Gtrs.2&3:--------------------|
B------------|-----------------------------------------15-13-11--------------------|
Gs-&-Vocals--|-----------------------17-14----------14-15-14-12-14-12--------------|
D------------|--7---------7----/10---------15----15-------------15-13-15-14-15~~---|
A------------|--5----8----5----/8----10-------15-------10-------------17-15-17~~---|
E--------------------6----------------8-----------------8--------------------------|

Bridge Refrein
E----------------------------------------------------------------------------------|
B----------------------------6--------------------------|--------------------------|
G----------------------------5--------------------------|--------------------------|
D------7---7---7---7----\5---5---5---5---------5---/7---|--------------------------|
A--8---5-5-5-5-5-5-5-5--\3-3-3-3-3-3-3-3---8---3---/5---|--5-----5-----5-----5-----|
E--6---------------------------------------6---------------3-3-3-3-3-3-3-3-3-3-3-3-|


E----------------------------------------------------------------------------------|
B----------------------------------------------------------------------------------|
G---------------------------------8------------------------------------------------|
D--------/8-----8-----8-----8-----8---8----------------------------------/8-----8--|
A-5---5--/6-6-6-6-6-6-6-6-6-6-6-6-6-6-6--\5-----5-----5-----5-----5---5--/6-6-6-6-6|
E-3-3-3----------------------------------\3-3-3-3-3-3-3-3-3-3-3-3-3-3-3------------|

E----------------------------------------------------------------------------------|
B----------------------------------------------------------------------------------|
G----------------------------------------------------------------------------------|
D---8-----8------8--7--5----7----12--10--8----5----7--------------------5-----7---/|
A-6-6-6-6-6-6-6--6--5--3----5----10---8--6----3----5---6-5---5----------3-----5---/|
E----------------------------------------------------------8---6-8-5-6-------------|


E----------------------------------------------------------------------------------|
B----------------------------------------------------------------------------------|
G----------------------------------------------------------------------------------|
D-12--10--8---\5---7---------------------------------------------------------------|
A-10--8---6---\3---5----6-5---5----------5-6-5---5--------6-5---5-----------5---5-\|
E---------------------------8---6-8-5-6--------8---6-8-5------8---6-8-5-6---3---3-\|

E------||
B------||
G------|| einde
D------||
A-\----||
E-\----||

ProTabs promo.jpg

Onbeperkt en gratis toegang tot alle 25.000
Tabs & Chords en direct meespelen met

Artiest Liedje

...

Gitaarakkoorden sonata arctica - my land

Dankzij de bladmuziek op deze pagina wordt het een stuk makkelijker om met de gitaar mee te spelen met my land van sonata arctica De ProTabs van Gitaartabs worden door onze professionele gitaardocenten samengesteld. De tabs en chords zijn door leden zelf geplaatst. Deze undefined van sonata arctica met my land is voor je geschreven door [b]lack[a]ngel

Tabs & Chords van sonata arctica - my land

Bij de ProTabs delen we niet alleen de tablatuur maar ook de speelwijze van my land Met een beetje gitaar ervaring moet je dit gitaarliedje zeker kunnen spelen, maar als het niet lukt zijn we er altijd om je te helpen. Door een gratis account aan te maken krijg je niet alleen toegang tot deze tab ,akkoorden & tabs van my land maar kun je ook onbeperkt meespelen met een van de meer dan 25.000 andere tabs & chords in onze database.

Plaats opmerking

Beoordeel deze song

Rate UsDon’t love itNot greatGoodGreatLove itRate Us

Bedankt voor je beoordeling!