Stromae- alors on danse

Gitaarliedjes, tabs & akkoorden (chords) Stromae- alors on danse - stromae

Songtype: Tab

arrow&v

Markeer als favoriet

Favoriet

Gemarkeerd als favoriet

Capo:

0

stromae

stromae

Song
Album
Categorie

Stromae- alors on danse

cheese

Downloads
1186
Niveau
2
Geplaatst door
gitaartabs
ProTabs-promo.jpg

STROMAE- ALORS ON DANSE

e]------------------------------------------------]
b]------------------------------------------------]
g]--------------------------2---------------------] 2X HERHALEN
d]--------6--6-6--------2-----1--1-1--------------]
a]-----4------------------------------------------]
e]--4---------------------------------------------]

e]--------------------------------------------------------------------------------------------------------------]
b]--------------------------------------------------------------------------------------------------------------]
g]--------------------------------------------------------------------------------------------------------------]
d]---2--2-2--2--2--4--1--1---2--2-2--2--2--4------1--1-1-----2--2-2--2--2--4--1--1---2--2-2--2------------------]
a]--------------------------------------------------------4-----------------------------------------------------]
e]--------------------------------------------------------------------------------------------------------------]



enzovoort...

ProTabs promo.jpg

Onbeperkt en gratis toegang tot alle 25.000
Tabs & Chords en direct meespelen met

Artiest Liedje

...

Gitaarakkoorden stromae - Stromae- alors on danse

Dankzij de bladmuziek op deze pagina wordt het een stuk makkelijker om met de gitaar mee te spelen met Stromae- alors on danse van stromae De ProTabs van Gitaartabs worden door onze professionele gitaardocenten samengesteld. De tabs en chords zijn door leden zelf geplaatst. Deze undefined van stromae met Stromae- alors on danse is voor je geschreven door gitaartabs

Tabs & Chords van stromae - Stromae- alors on danse

Bij de ProTabs delen we niet alleen de tablatuur maar ook de speelwijze van Stromae- alors on danse Met een beetje gitaar ervaring moet je dit gitaarliedje zeker kunnen spelen, maar als het niet lukt zijn we er altijd om je te helpen. Door een gratis account aan te maken krijg je niet alleen toegang tot deze tab ,akkoorden & tabs van Stromae- alors on danse maar kun je ook onbeperkt meespelen met een van de meer dan 25.000 andere tabs & chords in onze database.

Plaats opmerking

Beoordeel deze song

Rate UsDon’t love itNot greatGoodGreatLove itRate Us

Bedankt voor je beoordeling!