Mia

Gitaarliedjes, tabs & akkoorden (chords) Mia - gorki

Songtype: Chords

arrow&v

Markeer als favoriet

Favoriet

Gemarkeerd als favoriet

Capo:

0

gorki

gorki

Song
Album
Categorie

Mia

Downloads
4929
Niveau
1
boterhammen

Geplaatst door
samdegrote
ProTabs-promo.jpg

Akoorden: Am, G, C, D, F

Elk akoord 8x aanslagen


Am G C
-----------------------3---------------------------------
--1(3)*---------------------------------1--------------
--2------------------------------------------------------ X4
--2--------------------------------------2--------------
-----------------------2-----------------3--------------
-----------------------3---------------------------------

*(bij 7de keer aanslagen vinger op 3de fret)

F G C
-1---------------3---------------------------------
-1---------------------------------------1---------
-2-------------------------------------------------- X4
-3---------------------------------------2---------
-3---------------2----------------------3---------
-1---------------3---------------------------------


Terug naar het begin.


Lyrics:

Toen ik honger had
Kwam ik naar je toe
Je zei
Eten kan
Als je de afwas doet
Mensen als jij moeten niet moeilijk doen
Geef ze een kans voor ze stom gaan doen
De middenstand regeert het land
Beter dan ooit tevoren
Mia heeft het licht gezien
Ze zegt
Niemand gaat verloren
Voorlopig gaan we nog even door
Op het lichtend pad
Het verkeerde spoor
Mensen als ik vind je overal
Op de arbeidsmarkt
In dit tranendal
Sterren komen
Sterren gaan
Alleen Elvis blijft bestaan
Mia heeft nooit afgezien
Ze vraagt
Kun jij nog dromen
De middenstand regeert het land
Beter dan ooit tevoren
Mia heeft het licht gezien
Ze zegt
Niemand gaat verloren
Sterren komen
Sterren gaan
Alleen Elvis blijft bestaan
Mia heeft nooit afgezien
Ze vraagt
Kun jij nog dromen
Sterren komen
Sterren gaan
Alleen Elvis blijft bestaan
Mia heeft nooit afgezien
Ze vraagt
Kun jij nog dromen

ProTabs promo.jpg

Onbeperkt en gratis toegang tot alle 25.000
Tabs & Chords en direct meespelen met

Artiest Liedje

...

Gitaarakkoorden gorki - Mia

Dankzij de bladmuziek op deze pagina wordt het een stuk makkelijker om met de gitaar mee te spelen met Mia van gorki De ProTabs van Gitaartabs worden door onze professionele gitaardocenten samengesteld. De tabs en chords zijn door leden zelf geplaatst. Deze undefined van gorki met Mia is voor je geschreven door samdegrote

Tabs & Chords van gorki - Mia

Bij de ProTabs delen we niet alleen de tablatuur maar ook de speelwijze van Mia Met een beetje gitaar ervaring moet je dit gitaarliedje zeker kunnen spelen, maar als het niet lukt zijn we er altijd om je te helpen. Door een gratis account aan te maken krijg je niet alleen toegang tot deze chords ,akkoorden & tabs van Mia maar kun je ook onbeperkt meespelen met een van de meer dan 25.000 andere tabs & chords in onze database.

Plaats opmerking

Verstuur

Beoordeel deze song

Rate UsDon’t love itNot greatGoodGreatLove itRate Us

Bedankt voor je beoordeling!