In the shadows

Gitaarliedjes, tabs & akkoorden (chords) In the shadows - rasmus, the

Songtype: Chords

arrow&v

Markeer als favoriet

Favoriet

Gemarkeerd als favoriet

Capo:

0

rasmus, the

rasmus, the

Song
Album
Categorie

In the shadows

Downloads
1210
Niveau
2
Geplaatst door
sander
ProTabs-promo.jpg

Intro:
E|------------------------------------------------------------------------------------------------------------
B|------------------------------------------------------------------------------------------------------------
G|------------------------------------------------------------------------------------------------------------
D|-------------------------------------------------------------------------------------------------------------
A|--5---5--5--0-5-4-0-----------------------------------4---5--0--5--4--0-------------------------
E|-----------------------------2--2--2--0--2--4--5--7---------------------------2--2--4--4--5-----


E|----------------------------------------------------------------------------------------------------------------------
B|----------------------------------------------------------------------------------------------------------------------
G|----------------------------------------------------------------------------------------------------------------------
D|-----------------------------------------------------------------------------------------------------------------------
A|--5--5--5--0--5--4--0-----------------------------------4--5--0--5--4--0---------------------4--0-------
E|-------------------------------2--2--2--0--2--4--5--7-------------------------2--4--5--0--5---------------


E|------------------------------------------------------------------------------------------------------------
B|------------------------------------------------------------------------------------------------------------
G|------------------------------------------------------------------------------------------------------------
D|-------------------------------------------------------------------------------------------------------------
A|--5---5--5--0-5-4-0-----------------------------------4---5--0--5--4--0-------------------------
E|-----------------------------2--2--2--0--2--4--5--7---------------------------2--2--2--2--2-----



D
No sleep
D F#m Hm F#m
No sleep until I'm done with finding the answer
D
Won't stop
D F#m Bm F#m
Won't stop before I find the cure for this cancer
D F#m Bm F#m
Sometimes I feel like going down, I'm so disconnected

Slide down
D F#m Bm (F#m Fm Em)
Somehow I know that I am haunted to be wanted


D F#m
I've been watching, I've been waiting
Bm F#m
In the shadows for my time
D F#m
I've been searching, I've been living
Bm F#m
For tomorrows all my life


D F#m Bm F#m
They say that I must learn to kill before I can feel safe
But I, I'd rather kill myself than turn into their slave

Sometimes I feel that I should go and play with the thunder
Somehow I just don't wanna stay and wait for a wonder


D F#m Bm F#m
Lately, I've been walking, walking in circles
D F#m Bm
Watching, waiting for something
F#m D F#m
Feel me, touch me, heal me
Slide down
Bm (F#m Fm Em)
Come take me higher

ProTabs promo.jpg

Onbeperkt en gratis toegang tot alle 25.000
Tabs & Chords en direct meespelen met

Artiest Liedje

...

Gitaarakkoorden rasmus, the - In the shadows

Dankzij de bladmuziek op deze pagina wordt het een stuk makkelijker om met de gitaar mee te spelen met In the shadows van rasmus, the De ProTabs van Gitaartabs worden door onze professionele gitaardocenten samengesteld. De tabs en chords zijn door leden zelf geplaatst. Deze undefined van rasmus, the met In the shadows is voor je geschreven door sander

Tabs & Chords van rasmus, the - In the shadows

Bij de ProTabs delen we niet alleen de tablatuur maar ook de speelwijze van In the shadows Met een beetje gitaar ervaring moet je dit gitaarliedje zeker kunnen spelen, maar als het niet lukt zijn we er altijd om je te helpen. Door een gratis account aan te maken krijg je niet alleen toegang tot deze chords ,akkoorden & tabs van In the shadows maar kun je ook onbeperkt meespelen met een van de meer dan 25.000 andere tabs & chords in onze database.

Plaats opmerking

Beoordeel deze song

Rate UsDon’t love itNot greatGoodGreatLove itRate Us

Bedankt voor je beoordeling!