Life's rich pageant

Gitaarliedjes, tabs & akkoorden (chords) Life's rich pageant - r.e.m.

Songtype: Chords

arrow&v

Markeer als favoriet

Favoriet

Gemarkeerd als favoriet

Capo:

0

r.e.m.

r.e.m.

Song
Album
Categorie

Life's rich pageant

Downloads
1031
Niveau
1

Geplaatst door
gitaartabs
ProTabs-promo.jpg

Life's Rich Pageant


{lick G(3) : ------------0-2-0----
D(2) : --0-h-2-h-4-------4-0- F# chord....}

F# A
Birdie in the hand for life's rich demand
E F# {lick}
The insurgency began and you missed it
F# A
I looked for it and I found it
E F# F#7
Miles Standish proud, congratulate me

D
A philanderer's tie, a murderer's shoe

{same as before}
Life's rich demand creates supply in the hand
Of the powers, the only vote that matters
Silence means security silence means approval
On Zenith, on the TV, tiger run around the tree
Follow the leader, run and turn into butter

D
Let's begin again, begin the begin
F# A
Let's begin again like Martin Luther Zen
E F# {lick}
The mythology begins the begin
F#
Answer me a question I can't itemize
A
I can't think clearly, look to me for reason
E F# F#7
It's not there, I can't even rhyme in the begin

D
A philanderer's tie, a murderer's shoe
F G {keys walkdown} C#
Example: the finest example is you

Birdie in the hand for life's rich demand
The insurgency began and you missed it
I looked for it and I found it
Miles Standish proud, congratulate me

D
A philanderer's tie, a murderer's shoe
F G F G
Let's begin again begin the begin
F G F G
Let's begin again


R.E.M. - These Days, transcribed by Marc v.d. Geest (marc@football.demon.nl)

INTRO:

e:-0--0-0--0--0-0--0--0--0--0--0-0--
b:-0--0-0--0--0-0--0--0--0--0--0-0--
g:-9--9-9--9--9-9--9--7--7--7--7-7--
d:-9--9-9--9--9-9--9--9--7--9--9-9--
a:----------------------------------
e:----------------------------------

e:-0--0-0--0--0-0----0-0--let-ring--
b:-0--0-0--0--0-0--/10-8------------
g:-9--9-9--9--9-9--------9-7qb------
d:-9--9-9--9--9-9--------------9----
a:----------------------------------
e:----------------------------------
qb = quarter bend

VERSE:

e:-0-------0-0-0-------------------3-----3-3-3-3-3--3-3-|
B:-0-------3-2-0-----------------3---3-----1-0-1-3--3-3-|
G:-1-------2-2-1--------2/4-2--0-------0---0-0-0-0--0-0-| 2x
D:-2-------2-2-2---------------------------0-0-0-0--0-0-|
A:-2-----------2---------------------------x-x-x-x--x-x-|
E:-0-----------0---------------------------3-3-3-3--3-3-|
\----repeat-2nd-time-----/

B5 (x2440x) (or you can also play x24400, doesn't matter)
All the people gather

CHORUS:

E E/F# G (320033, not 320003!)
Fly to carry each his burden

A Asus4 Cadd9 (Asus4=x02230, Cadd9=x32033)
We are young despite the years

Em Em/F# G A Asus2 A (Asus2=x02200)
We are concern, we are hope despite the times

E E/F# G
All of the sudden,

A Asus4 Cadd9
these days, happy throngs,

Em Em/F# G Asus4 A (E)
take this joy wherever, wherever....

N.B. : it might be possible that Peter does not play those F# bass notes in
the E and Em chords, 'cause they are also played by the bass. But when
you're playing on your own it sounds better this way.

SOLO:

e:---0---------------0-----0-----0------0-----0---0-----0-----0-|
B:-------0-----0---0---0-----------0------0---------0-----0-----|
G:-9---------7---6-------6----12-----11-----9---7-----9---------| 4x
D:-----9----------------------------------------------------9---|
A:--------------------------------------------------------------|
E:--------------------------------------------------------------|


Lyrics:
Now I'm not feeding off you, I will rearrange your scales
If I can, and I can
March into the ocean, march into the sea

I had a hat I put it down and it sunk, reached down,
yanked it up, slapped it on my head
All the people gather
Fly to carry each his burden
We are young despite the years we are concern
We are hope despite the times
All of the sudden, these days
Happy throngs, take this joy wherever, wherever....

I wish to meet each one of you
And you, me, you, if I can and I can
We have many things in common, name three (three, three, three)

I had a hat and it sunk, reached down,
yanked it up, slapped it on my head
All the people gather
Fly to carry each his burden
We are young despite the years we are concern
We are hope despite the times
All of the sudden, these days
Happy throngs, take this joy wherever, wherever you go.

Now I'm not feeding off you I will rearrange your scales
If I can and I can
I wish to eat each one of you and you, me, you

I had a hat and it sunk, reached down,
yanked it up, slapped it on my head
All the people gather
Fly to carry each his burden
We are young despite the years we are concern
We are hope despite the times
All of the sudden, these days
Happy throngs, take this joy wherever, wherever you...
carry each his burden
We are young despite the years we are concern
We are hope despite the times
All of the sudden, these days
Happy throngs, take this joy wherever, wherever you go.
(Take away the scattered bones of my meal)

HYENA

(tab: r. muncada, lyr: Ron Henry, rgh3@cornell.edu / rec.music.rem)

P. Buck's verse riffs (not timed properly, you should know, clean, muted)
-------------------------------------------
---------0-0-0-2-3-3-3-3-3-2\0/2-2-2-2-2-2-
-2-2-2-3-----------------------------------
-------------------------------------------
-------------------------------------------
-------------------------------------------

E A2 A
Night time fell at the opening,
In the final act of the beginning of time.
Hyena take your role, the stage is set.
The town is safe again tonight

E|-----0-3--3--2--2--0--0-----0-3--3--2--2--0--0-
B|-2-3--------------------2-3--------------------
G|-----------------------------------------------
D|-----------------------------------------------
A|-----------------------------------------------
E|-----------------------------------------------

G D A
Hyena (I see the day ahead)
Hyena (and all that I've cried through)
Hyena (God knows you're doin' that, don't you?)

[The open chord sequence with the moving bass line is:

D(strummed repeatedly) Am D Am E

{lyr: don't you?}

E A2 A
Hyena, sister look to your hand
Man you serve communal interest,
She'll tell you when and where and how and why you'd hurt
A beautiful young lady

Hyena (I see the day ahead)
Hyena (and all that I've cried through)
Hyena (God knows you're doin' that, don't you?)

The only thing to fear is fearlessness
The bigger the weapon the greater the fear
Hyena is ambassador to here

Night time fell like the closing
Meager pay, but recognition
Hyena crawls on his belly out
The town is safe again tonight

Hyena (I see the changes, man)
Hyena (Goin' on 'cross the way)
Hyena (I see my road ahead)
Hyena (Don't know if I should stay)
Hyena (I see you holding him,)
Hyena (and all that I've cried through)
Hyena (God knows you're doin' that, don't you?)


JUST A TOUCH

From: Richard Hall
Corrections by: Mike (I lost the email address)

Intro: A D G x 4

A G A G
Well what in the world? Women in black
A G A G
Don't you remember send us back
A D G A D G
A day in the life well nobody laughed
A D G A D G
Look to the days how long can this last

C#m A
Kevin heard it on the radio
C#m A
Hugh informed word of mouth
C#m A
Carla read it in the news
C#m A
Caught it all just a touch

A D G x 2

A G A G
You set the pace of what was to come
A G A G
I have to carry on now that you're gone
A D G A D G
A day in the life well nobody laughed
A D G A D G
Look to the days how long can this last

C#m A
Kevin heard it on the radio
C#m A
Hugh informed word of mouth
C#m A
Carla read it in the news
C#m A
Caught it all just a touch

E D E
There's someone in our dreams
D E D E D
In our preassembled dream
Lord! Dave! William!

{Organ break: Play A D G progression a few times}

A G A G
Well what in the world? Women in black
A G A G
Don't you remember send towering part back
A D G A D G
A day in the life well nobody laughed
A D G A D G
Look to the days how long can this last

C#m A
Kevin heard it on the radio
C#m A
Hugh informed word of mouth
C#m A
Carla read it in the news
C#m A
Caught it all just a touch

A D G (repeat to end over these lyrics:)

I can't see where to worship Popeye, love Al Green,
I can't see, I'm so young, I'm so god damn young

I BELIEVE

Intro tab by: Trygve Sandven Haaland (trygve@bitcon.no)
Original chords by: ?
Corrections from: Matt Lane (100707.651@compuserve.com)

intro:
e-----------------------------------------------------
B-------0-0-0-0-0-0------0-0-0-0-0-0------------------
G--0-2-4-4-4-4-2-0---2->4-4-4-4-2-0---0----0-0-0------
D-------------------slide------------2->5-5-5-5--etc--
A-----------------------------------------------------
E-----------------------------------------------------

F
When I was young and full of grace
F
and spirited--a rattlesnake.
F
When I was young and fever fell
F
My spirit, I will not tell
Bb Gm
You're on your honor not to tell

F
I believe in coyotes and time as an abstract
F Bb
Explain the change, the difference between
Gm C
What you want and what you need, there's the key,
Am
Your adventure for today, what do you do
Bb C
Between the horns of the day?

F Fsus4 F C F Fsus4 F C F Fsus4 C Gm
I --- I -------- I ---- believe my shirt is wearing thin
Bb
And change is what I believe in

{same as before}
When I was young and give and take
And foolish said my fool awake
When I was young and fever fell
My spirit, I will not tell
You're on your honor, on your honor

When I was young and give and take
And foolish said my fool awake
When I was young and fever fell
My spirit I will not tell
You're on your honor on your honor

Trust in your calling, make sure your calling's true
Think of others, the others think of you
Silly rule golden words make, practice practice makes perfect,
Perfect is a fault, and fault lines change

I believe my humor's wearing thin
And change is what I believe in

{break: Dm Bb Dm Bb D Bb C}

I believe my shirt is wearing thin
And change is what I believe in

When I was young and full of grace
As spirited a rattlesnake
When I was young and fever fell
My spirit, I will not tell
You're on your honor, on your honor
C
I believe in example
Am
I believe my throat hurts
Bb C
Example is the checker to the key

I believe my humor's wearing thin
And I believe the poles are shifting

I believe my shirt is wearing thin
And change is what I believe in

End on Dm.

THE FLOWERS OF GUATEMALA

From: Mark Hasty (MHASTY@exoduspo.luthersem.edu)

Bmi7: xx4432

intro riff:

e----4--7--4-------------|-----0--------0---------
B--5--5--5--5p0-------|---0---0---0----0-------
G-------------------------|--2--------2------------

(verse)
E A
I took a picture that I'll have to send
E A
People here are friendly and content
E A
People here are colorful and bright
E A
The flowers often bloom at night

(chorus)
D G
Amanita is the name
D G
The flowers cover everything
D Bmi7 A
The flowers cover everything

(repeat pattern for verse)
There's something here I find hard to ignore
There's something that I've never seen before
Amanita is the name they cover over everything

(chorus)
D G
The flowers cover everything
D G
They cover over everything (Amanita is the name)
D Bmi7 A
The flowers cover everything

(bridge)
G# A E
Don't look into the sun
G# A B
Don't look into the sun

(solo)
(play verse chords)
(B)-5-7--5-7--5-7--10--9--7 }
(G)----------------------------9 } play 2x

E A G


(B)-5-7--5-7--5-7--10--9--7----8--7--5
(G)----------------------------9----------7

There's something that I've never seen before
The flowers often bloom at night
Amanita is the name they cover over everything


UNDERNEATH THE BUNKER

The first part is played 2 times at the beginning and then the second
part 2 times and then finally play the first part twice again. The song
then ends on the E chord.

The First Part:

E-----------------------------------------------------------------------
B-----------------------------------------------------------------------
G--3-4-5-4-3-5-4-------------------------4-2-0--------------------------
D----------------4-5-7-5-4-7-5---5-4-1---------1-2----------------------
A--------------------------------------2--------------------------------
E-----------------------------------------------------------------------

The Second Part:

E--7-8-10-8-7-10->15-12---15-14-12--------------------------------------
B----------------------------------15-13->15-13-12--------12-13-12------
G--------------------------------------------------14--14----------14---
D-----------------------------------------------------------------------
A-----------------------------------------------------------------------
E-----------------------------------------------------------------------

E-----------------------------------------------------------------------
B--12-12-12-12-10-8-10-10-10-10-8-7-5-4---------------------------------
G-----------------------------------------------------------------------
D-----------------------------------------------------------------------
A-----------------------------------------------------------------------
E-----------------------------------------------------------------------

Lyrics:

I will hide and you will hide
And we shall hide together here
Underneath the bunkers in the row

I have water I have rum
Wait for dawn and dawn shall come
Underneath the bunkers in the row


CUYAHOGA (Version 1)


There are two ways to play the intro riff. The more accurate way is to tune
your low E string down to D. If you want to be able to play normal chord
shapes, though, this way is better:

G(3) --2------2----|
D(4) 0-----0-----0-|
A(5) |--5-----5-5-----|--2-------2-----|--5-5---5-5-----|
E(6) |3-----3-----3---|0-----0-------0-|3-----3-----3---|

D G Em G (repeat throughout verse)
Let's put our heads together and start a new country up
Our father's father's father tried, erased the parts he didn't like
Let's try to fill it in, bank the quarry river, swim
We knee-skinned it you and me, we knee-skinned that river red

Em Bm Em F#m
This is where we walked, this is where we swam
Em Bm Em D
Take a picture here, take a souvenir

D G Em G (repeat throughout verse)
This land is the land of ours, this river runs red over it
We knee-skinned it you and me, we knee-skinned that river red
And we gathered up our friends, bank the quarry river, swim
We knee-skinned it you and me, underneath the river bed

(see below...)
This is where we walked, this is where we swam
Take a picture here, take a souvenir

Cuyahoga D - Em -/G - Bm -/D D D D/ Asus4 A A2 A
Cuyahoga, gone D - Em -/G - Bm -/D - Em -/G - - -

D G Em G (repeat throughout verse)
Let's put our heads together, start a new country up,
Underneath the river bed we burned the river down.
This is where they walked, swam, hunted, danced and sang,
Take a picture here, take a souvenir
Cuyahoga
Cuyahoga, gone

Bm F#m G
Rewrite the book and rule the pages, saving face, secured in faith
Bm F#m G
Bury, burn the waste behind you

(intro riff)

D G Em G (repeat throughout verse)
This land is the land of ours, this river runs red over it
We are not your allies, we can not defend
This is where they walked, this is where they swam
Take a picture here, take a souvenir

Cuyahoga D - Em -/G - Bm -/D D D D/ Asus4 A A2 A
Cuyahoga, gone D - Em -/G - Bm -/D - Em -/G - - -
Cuyahoga D - Em -/G - Bm -/D D D D/ Asus4 A A2 A
Cuyahoga, gone D - Em -/G - Bm -/D - Em -/G - - -

This is what to do for the "this is where we walked..." part:

Em Bm Em F#m
e(1) --just--jam-----|2-----2----------|--Em-again...---|2-----2----------|
B(2) ------on--------|-----------3-----|----------------|-----------2-----|
G(3) --------Em------|-------------4---|----------------|-------------2---|




CUYAHOGA (Version 2)

DROP D (DADGBe)
/=slide

Intro:
D G Em G
e --------------------------------
B --------------------------------
G --------------------------------
D --------------------------------
A -0=-0=---5=-55---2=--2=--55-55--
D 0--0--0=5--5--5s2--2=--25--5--5-
1-2-3-4-1-2-3-4-1-2-3-4-1-2-3-4-
/ /

Verse lick:
(damp 4th string runs with heel of picking hand)
D G Em G
e 2222=---3-----3---------------3-
B 3333=---3---3---------------3---
G 4442=---0------------2-0--------
D 0000=4200-------2224=-4---------
A 0000----x-------222-------------
D 0000----3-------222-----3-------
1-2-3-4-1-2-3-4-1-2-3-4-1-2-3-4-
/
Let's put our . . .
Let's try to . . .

Chorus Part A:
Em Bm Em F#m Em Bm Em D (BIG!)
e -------2----2-0--------2----2----------2----2-0--------2--------
B -------3---------------2------2--------3---------------3--------
G -------4---------------2---------------4---------------2--------
D -------4---------------2---------------4---------------0--------
A 02=02002--------02=02004--------02=02002--------02=02000--------
D 02=0200x--------02=02004--------02=02002--------02=02000--------
1-2-3-4-1-2-3-4-1-2-3-4-1-2-3-4-1-2-3-4-1-2-3-4-1-2-3-4-1-2-3-4-
This is where...

Verse = This land . . .
Verse = We gathered up . . .
Chorus Part A = This is where . . .

Chorus Part B: Aadd9
D Em G Bm D A |A D Em G Bm D Em G (hold it)
e 22--00--33--22--22-2-2-22-0000--22--00--33--22--22--00--33-------
B 33--00--33--33--33-3-3-33-2202--33--00--33--33--33--00--33-------
G 22--00--00--44--22-2-2-22-2222--22--00--00--44--22--00--00-------
D 00--22--00--44--00-0-0-00-2222--00--22--00--44--00--22--00-------
A 00--22--55--22------------0000--00--22--xx--22--00--22--55-------
D 00--22--55--xx------------------00--22--55--xx--00--22--55-------
-1-2-3-4-1-2-3-4-1-2-3-4-1-2-3-4-1-2-3-4-1-2-3-4-1-2-3-4-1-2-3-4-
Cuyahoga . . .

Verse = Let's put . . .
Chorus A = This is where . . .
Chorus B = Cuyahoga . . .

Bridge: (remember G is 550033 low to high)
Bm / A / G / G / Bm / A / G / G
Rewrite . . . Bury . . .

Intro
Verse = This land is . . .
Chorus A = This is where . . .
Chorus B = Cuyahoga . . .

Last time through hold G an extra bar and finish with D

Lyrics:

Let's put our heads together and start a new country up
Our father's father's father tried, erased the parts he didn't like
Let's try to fill it in, bank the quarry river, swim
We knee-skinned it you and me, we knee-skinned that river red

This is where we walked, this is where we swam
Take a picture here, take a souvenir

This land is the land of ours, this river runs red over it
We knee-skinned it you and me, we knee-skinned that river red
And we gathered up our friends, bank the quarry river, swim
We knee-skinned it you and me, underneath the river bed

This is where we walked, this is where we swam
Take a picture here, take a souvenir
Cuyahoga
Cuyahoga, gone

Let's put our heads together, start a new country up,
Underneath the river bed we burned the river down.
This is where they walked, swam, hunted, danced and sang,
Take a picture here, take a souvenir
Cuyahoga
Cuyahoga, gone

Rewrite the book and rule the pages, saving face, secured in faith
Bury, burn the waste behind you

This land is the land of ours, this river runs red over it
We are not your allies, we can not defend
This is where they walked, this is where they swam
Take a picture here, take a souvenir

Cuyahoga
Cuyahoga, gone
Cuyahoga
Cuyahoga, gone


WHAT IF WE GIVE IT AWAY?

Chords by: Tony Bowden (dejavu@athmail1.causeway.qub.ac.uk)
Corrections by: jieuryli@eden.rutgers.edu)

G A G A
On the outside underneath the wall
All the money couldn't buy
You're mistaken no one's standing there
For the record no one tried

Em A Em A
Oh... I..... try to
G D
What if we give it away...?

Overlooking with a hollow eye
What's pretending is it right
Eye for order a hand for what's in line
Couldn't follow couldn't write

Em A Em A
Oh... I..... try to
G D
What if we give it away...?

A D C G
And our life is fine here
A D C Em
Stitch it on your tie here

Here's the trailer Tom
A year has come and gone
We're not moving was it right
Take the order sew it on your tie
We couldn't follow couldn't try

These are basic runs from D chord to G, something like:

|------------ |-----------------3--
|-3-2-0------ |-3-3-3-3-3-2-0---2--
|-------2-0-2 and |---------------2-0--
|------------ |--------------------
|------------ |--------------------
|------------ |--------------------


FALL ON ME

Corrections by: Mike Allard (allard@rose-hulman.edu)
Intro riff From: "Marc" (marc@football.demon.nl)

Intro:

e|----------------------------------------------|
B|-------8------10-8--------8------10-8---------|
G|---------0---------0--------0---------0-------|
D|--9h10-----10--------9h10-----10--------9h10--|
A|----------------------------------------------|
E|----------------------------------------------|

Dm Am
There's a problem, feathers iron
Dm Am
Bargain buildings, weights and pullies
Dm Am Dm Am
Feathers hit the ground before the weight can leave the air
Dm G C Dm/F Dm C G7
Buy the sky and sell the sky and tell the sky and tell the sky


{walk} C Dm F G
Don't fall on me (What is it up in the air for) (It's gonna fall)
Fall on me (If it's there for long) (It's gonna fall)
F G F Fmaj7
Fall on me (It's over it's over me) (It's gonna fall)


Dm Am
There's the progress we have found (when the rain)
Dm Am
A way to talk around the problem (when the children reign)
Dm Am
Building towered foresight (keep your conscience in the dark)
Dm Am
isn't anything at all (melt the statues in the park)
Dm G C Dm/F Dm C G7
Buy the sky and sell the sky and bleed the sky and tell the sky


{walk} C Dm F G
Don't fall on me (What is it up in the air for) (It's gonna fall)
Fall on me (If it's there for long) (It's gonna fall)
F G F Fmaj7
Fall on me (It's over it's over me) (It's gonna fall)

Am F Am
Well I could keep it above
G Am
But then it wouldn't be sky anymore
F Dm G
So if I send it to you you've got to promise to keep it whole

Dm G C Dm/F Dm G C Dm/F
Buy the sky and sell the sky and lift your arms up to the sky
Dm C G
And ask the sky and ask the sky

{walk} C Dm F G
Don't fall on me (What is it up in the air for) (It's gonna fall)
Fall on me (If it's there for long) (It's gonna fall)
F G F Fmaj7
Fall on me (It's over it's over me) (It's gonna fall)

{walk} C Dm F G
Don't fall on me (What is it up in the air for) (It's gonna fall)
Fall on me (If it's there for long) (It's gonna fall)
F G F Fmaj7
Fall on me (It's over it's over me) (It's gonna fall)

{walk} C Dm F G
Don't fall on me (What is it up in the air for) (It's gonna fall)
Fall on me (If it's there for long) (It's gonna fall)
F G F Fmaj7
Fall on me (It's over it's over me) (It's gonna fall)...



SWAN SWAN H

The Rhythm guitar is played on a 12 - string while the other part is
played on a regular 6 - string.

This song is in 6/8 time. In the intro, Peter plays an Am chord. On
beat four, he lifts up his finger on the second fret of the D string
then hammers it right back on. Its an old trick but one of my
favorites. He also does it on the Dm chord when it's played for a
whole 6 beats - except of course, he lifts his finger off of the G
string.

Am Dm G
Swan, swan, hummingbird
Am Dm
Hurrah, we are all free now
Am Dm G
What noisy cats are we
Am Dm
Girl and dog he bore his cross

Am Dm G
Swan, swan, hummingbird
Am Dm
Hurrah, we are all free now
Am Dm G Am
A long, low time ago, people talk to me

Em F
Johnny Reb what's the price of fans
Em F
Forty a piece or three for one dollar?
Em F
Hey captain don't you want to buy
Em C G
Some bone chains and toothpicks?

{same as first verse}
Night wings, her hair chains,
Here's your wooden greenback, sing
Wooden beams and dovetail sweep
I struck that picture ninety times,
I walked that path a hundred ninety,
Long, low time ago, people talk to me

G Bm
A pistol hot cup of brine
C D
The whiskey is water, the water is wine
G Bm C C/B
Marching feet, Johnny Reb, what's the price of heroes?

{Em to F progression}
Six in one, half dozen the other,
Tell that to the captain's mother,
Hey captain don't you want to buy,
Some bone chains and toothpicks?

Night wings, her hair chains
Swan, swan, hummingbird
Hurrah, we are all free now
What noisy cats are we
Long, low time ago, people talk to me
A pistol hot cup of rhyme,
The whiskey is water, the water is wine

{end on Am}

Here's what goes on in the background:

#1:
Swan Swan...

Am Dm G Am Dm
(D)--------0-2-|-0---|-----|-------0-2-|-0-|
(A)-0-2-3------|---0-|-----|-0-2-3-----|---| Back over
(E)------------|-----|-3---|-----------|---|

#2:
Johnny rep...

Em F Em F
(A)-2---0-2-|-3-0---|-2---0-2-|-3-|
(E)---3-----|-----1-|---3-----|---|

When switching from #1 to #2 or #3 do this

...some bones, chains...

Em F Em Am
(A)-2---0-2-|-3--|-2---|-0-2-3-|
(E)---3-----|----|-----|-------| ... 1st time
| G D C D
This on (G)-----|-0-0-0-----|---------|---------|---------|
A Pistol... (D)---0-|-------4-2-|-4-2-0-0-|---------|-0-0-2-4-|
(#3) (A)-----|-----------|---------|-3-3-2-3-|---------|
|2nd time
|D Em
(D) |-0-0-0-|Six...
(A) |-------|

SUPERMAN (The Clique)


{intro: E E7 E E7 ......}

E Asus2 E E7
I am I am I am Superman and I know what's happening
E Asus2 E E7
I am I am I am Superman and I can do anything

E A E
You don't really love that guy you make it with now do you
E A E
I know you don't love that guy cause I can see right through you

If you go a million miles away I'll track you down girl
Trust me when I say I know the pathway to your heart

{break}
D D A A A (E) --0-0-3-4-0-0-3-4-
..... repeat....

ProTabs promo.jpg

Onbeperkt en gratis toegang tot alle 25.000
Tabs & Chords en direct meespelen met

Artiest Liedje

...

Gitaarakkoorden r.e.m. - Life's rich pageant

Dankzij de bladmuziek op deze pagina wordt het een stuk makkelijker om met de gitaar mee te spelen met Life's rich pageant van r.e.m. De ProTabs van Gitaartabs worden door onze professionele gitaardocenten samengesteld. De tabs en chords zijn door leden zelf geplaatst. Deze undefined van r.e.m. met Life's rich pageant is voor je geschreven door gitaartabs

Tabs & Chords van r.e.m. - Life's rich pageant

Bij de ProTabs delen we niet alleen de tablatuur maar ook de speelwijze van Life's rich pageant Met een beetje gitaar ervaring moet je dit gitaarliedje zeker kunnen spelen, maar als het niet lukt zijn we er altijd om je te helpen. Door een gratis account aan te maken krijg je niet alleen toegang tot deze chords ,akkoorden & tabs van Life's rich pageant maar kun je ook onbeperkt meespelen met een van de meer dan 25.000 andere tabs & chords in onze database.

Plaats opmerking

Verstuur

Beoordeel deze song