Wonderboy

Gitaarliedjes, tabs & akkoorden (chords) Wonderboy - tenacious d

Songtype: Chords

arrow&v

Markeer als favoriet

Favoriet

Gemarkeerd als favoriet

Capo:

0

tenacious d

tenacious d

Song
Album
Categorie

Wonderboy

Downloads
1317
Niveau
2
tenacious d

Geplaatst door
ProTabs-promo.jpg

D Dm
e-----2---------3p2------------------1p0------1p0----------------
B--------3--------------3----2--------------3------------3-----3----- (REPEAT)
G-----------2--------------2-------3------------3------------3-------
D-0----------------------------------------------------------------------
A-------------------------------------------------------------------------
E-------------------------------------------------------------------------



Lyrics:
D Dm
High above the mucky muck castle made of cloud
D Dm
there sits wonderboy sitting oh so proudly.
D D/C D/B A Bb C D
not much to say when you're high above the mucky muck yeahhhh yeah
D Dm
wonderboy, what is the secret of your power
D D/C D/B D/A Bb C D
wonderboyyyy won't you take me far away from the mucky muck man
D Dm
D Dm



D Dm
Well now its time for me to tell you about young nasty man
D Dm
who is the archrival and nemesis of wonderboy
D Dm
with powers comparable to wonderboy!
D D/C
What powers, you may ask?
D/B
How about the power of flight?
D/A D/G
And what that is specifically is levitation, with powers to move inside the sun,
D/F#
and forwards, and up, backwards
E
How about the power of telekenesis?
F F# G G#
Has anyone seen it in action? I doubt it, i severly doubt it, rare...
A
How about the power to move you?

(applause then back to part I)

D Dm D Dm
The history of wonderboy and young nastyman, rigga goo goo rigga goo goo
D D/C D/B D/A Bb C D
the secret to be told, and a gold chest to be bold, blasting forth with three part harmony yeah!!!
D Dm
Well wonderboy and young nastyman joined forces,
D
and they formed a band the likes of which had never been seen.
Dm D D/C D/B D/A Bb C-C D-D-D
And they called themselves Tenacious D, thats right me, and KG, and me , Tenacious Deeeeeee.
(see below)
Come fly with me.

e-10--------10----10h12--12/13--12--10-----------
B----10-10----10--------------------------11--10-------
G-----------------------------------------------------------------
D-----------------------------------------------------------------
A----------------------------------------------------------------
E-----------------------------------------------------------------

ProTabs promo.jpg

Onbeperkt en gratis toegang tot alle 25.000
Tabs & Chords en direct meespelen met

Artiest Liedje

...

Gitaarakkoorden tenacious d - Wonderboy

Dankzij de bladmuziek op deze pagina wordt het een stuk makkelijker om met de gitaar mee te spelen met Wonderboy van tenacious d De ProTabs van Gitaartabs worden door onze professionele gitaardocenten samengesteld. De tabs en chords zijn door leden zelf geplaatst. Deze undefined van tenacious d met Wonderboy is voor je geschreven door undefined

Tabs & Chords van tenacious d - Wonderboy

Bij de ProTabs delen we niet alleen de tablatuur maar ook de speelwijze van Wonderboy Met een beetje gitaar ervaring moet je dit gitaarliedje zeker kunnen spelen, maar als het niet lukt zijn we er altijd om je te helpen. Door een gratis account aan te maken krijg je niet alleen toegang tot deze chords ,akkoorden & tabs van Wonderboy maar kun je ook onbeperkt meespelen met een van de meer dan 25.000 andere tabs & chords in onze database.

Plaats opmerking

Verstuur

Beoordeel deze song

Rate UsDon’t love itNot greatGoodGreatLove itRate Us

Bedankt voor je beoordeling!