Past the mission

Gitaarliedjes, tabs & akkoorden (chords) Past the mission - tori amos

Songtype: Chords

arrow&v

Markeer als favoriet

Favoriet

Gemarkeerd als favoriet

Capo:

0

tori amos

tori amos

Song
Album
Categorie

Past the mission

onbekend

Downloads
526
Niveau
2
Geplaatst door
ProTabs-promo.jpg

DISCLAMER : This is a very simple arrangement of the piano melody for the guitar
(feel free to improve your own way)

INTRO(piano)
G (sus4) (sus2) C Csus4 C
e----7-7----8--7-----5-------------------------------|
B----8-8----8--8-----8--8-----8---8--8--8--8---8-----|
G----7-7----7--7-----7--------9---9--9--10-10--9-----|
D-----------------------------10--10-10-10-10--10----|
A----------------------------------------------------|
E-----------------------------8---8--8--8--8---8-----|

I don't believe I went too far
I said I was willing willing willing
she said she knew what my books did not
I tought she knew what's up

Gm Eb Bb F (sus4)
e----3---------3---------6--------------8--8-------|
B----3---------4---------8-------------10-10-11-10-|
G----3---------3---------8-------------10-10-------|
D----5---------5---------8-------------10-10-------|
A----5---------6---------6--------------8--8-------|
E----3---------3-----------------------------------|

Past the mission behind the prison tower
past the mission I once knew a hot girl
past the mission they're closing every hour
past the mission I smell the roses

G C (sus4)
She said they all think they know him well
she knew him better better better
everyone wanted something from him
I did too but I shut my mouth
he just gave me a smile

Dm C Dm C
e---1--1-0------0--0-0-0-0--1--1-0------0-0---|
B---3--3---3-1--1--1-1-1-1--3--3---3-1--1-1---|
G---2--2--------0--0-0-0-0--2--2--------0-0---|
D---0--0--------2--2-2-2-2--0--0--------2-2---|
A---------------3--3-3-3-3--------------3-3---|
E---------------------------------------------|
Hey they found a body

Dm C F C
not sure it was his still they're using his name and
Dm C Dm C Dm C Dm
she gave him shelter and somewhere I know she knows
C Dm
somewhere I know she knows
C Dm
somethings only she knows...

Gm Eb Bb F (sus4)
e--------------------------------------------------|
B----3----3-----4----4-----3----3------1-----------|
G-------3---3------3--3-------3---3---------3-2----|
D------5-5---5----5----5-----3------3-----3-----3--|
A----5----5-----6----6-----1-----------3-----------|
E--------------------------------------------------|
Past the mission Behind the prison tower (chorus)
(chorus)
past the mission I smell the roses
past the mission I smell the roses

ProTabs promo.jpg

Onbeperkt en gratis toegang tot alle 25.000
Tabs & Chords en direct meespelen met

Artiest Liedje

...

Gitaarakkoorden tori amos - Past the mission

Dankzij de bladmuziek op deze pagina wordt het een stuk makkelijker om met de gitaar mee te spelen met Past the mission van tori amos De ProTabs van Gitaartabs worden door onze professionele gitaardocenten samengesteld. De tabs en chords zijn door leden zelf geplaatst. Deze undefined van tori amos met Past the mission is voor je geschreven door david viens - viensd@jsp.umontreal.ca

Tabs & Chords van tori amos - Past the mission

Bij de ProTabs delen we niet alleen de tablatuur maar ook de speelwijze van Past the mission Met een beetje gitaar ervaring moet je dit gitaarliedje zeker kunnen spelen, maar als het niet lukt zijn we er altijd om je te helpen. Door een gratis account aan te maken krijg je niet alleen toegang tot deze chords ,akkoorden & tabs van Past the mission maar kun je ook onbeperkt meespelen met een van de meer dan 25.000 andere tabs & chords in onze database.

Plaats opmerking

Beoordeel deze song

Rate UsDon’t love itNot greatGoodGreatLove itRate Us

Bedankt voor je beoordeling!