You oughta know

Gitaarliedjes, tabs & akkoorden (chords) You oughta know - alanis morissette

Songtype: Tab

arrow&v

Markeer als favoriet

Favoriet

Gemarkeerd als favoriet

Capo:

0

alanis morissette

alanis morissette

Song
Album
Categorie

You oughta know

Downloads
1412
Niveau
1
jagged little pill

Geplaatst door
gitaartabs
ProTabs-promo.jpg

YOU OUGHTA KNOW

I want you to know that I'm happy for you
I wish nothing but the best for you both


An older version of me [...] would she go down[...]speak eloquently[...]
|--------------------------------------------5----------------5------|
|---------2--------4---------4---------5-------------2---------------|
|-----------2--------------4---4-----------------------2-------------|
|-------------2-------------------4----------------------4-----------|
|--------------------------------------------------------------------|
|--------------------------------------------------------------------|

I'm sure she make[...]
|-4----------------7-------|
|--5----sl4----------------|
|---4-------4--------------|
|-------------4------------|
|--------------------------|
|--------------------------|

Pre-chorus:
F#5
the love that[...]make it[...] open wide no (twice)
|-----------5------2----------------------------7--5---------------|
|-2-------------------2---4-2-----------4------------7-0-5------4--|
|---2-------------------2------2----------4----------------4-2-----|
|-----4---------------------------4---------4----------------------|
|------------------------------------------------------------------|
|------------------------------------------------------------------|


F# E A B (twice)
|---------------|
|-------2--4----|
chorus |-3--1--2--4----|
|-4--2--2--4----|
|-4--2--0--2----|
|-2--0----------|


you [...] things [...] I'm [...] I thought [...]
|--------------------5-----2--4----------5-4---2---------------------|
|--2-----4----4------------------2-----------5---2--------4-----5----|
|----2----------4------------------2---------------2--------4--------|
|------4----------4------------------4----------------sl4-----4------|
|--------------------------------------------------------------------|
|--------------------------------------------------------------------|


forget about me[...] bug you [...] slap [...] thinkin'[...]
|--------------------------------------------------------------7-|
|----5------4----------5-----4--------10-----9--------4----------|
|------4-------(4)-------4-----4---------9-----11P9-----4---4----|
|--------4-------(4)-------4-----4---------9--------9-----4------|
|----------------------------------------------------------------|
|----------------------------------------------------------------|

Pre-chorus
Chorus

With tremolo effects F#5 B5 (4 times)

Pre-chorus
Chorus
Chorus
|-------------------|
Last chorus |---17B(19)---------|
continue with |-------------------|
this 'til the |-------------------|
end |-------------------|
|-------------------|

ProTabs promo.jpg

Onbeperkt en gratis toegang tot alle 25.000
Tabs & Chords en direct meespelen met

Artiest Liedje

...

Gitaarakkoorden alanis morissette - You oughta know

Dankzij de bladmuziek op deze pagina wordt het een stuk makkelijker om met de gitaar mee te spelen met You oughta know van alanis morissette De ProTabs van Gitaartabs worden door onze professionele gitaardocenten samengesteld. De tabs en chords zijn door leden zelf geplaatst. Deze undefined van alanis morissette met You oughta know is voor je geschreven door gitaartabs

Tabs & Chords van alanis morissette - You oughta know

Bij de ProTabs delen we niet alleen de tablatuur maar ook de speelwijze van You oughta know Met een beetje gitaar ervaring moet je dit gitaarliedje zeker kunnen spelen, maar als het niet lukt zijn we er altijd om je te helpen. Door een gratis account aan te maken krijg je niet alleen toegang tot deze tab ,akkoorden & tabs van You oughta know maar kun je ook onbeperkt meespelen met een van de meer dan 25.000 andere tabs & chords in onze database.

Plaats opmerking

Verstuur

Beoordeel deze song

Rate UsDon’t love itNot greatGoodGreatLove itRate Us

Bedankt voor je beoordeling!