Shrink

Gitaarliedjes, tabs & akkoorden (chords) Shrink - anneke van giersbergen en agua de annique

Songtype: Tab

arrow&v

Markeer als favoriet

Favoriet

Gemarkeerd als favoriet

Capo:

3

anneke van giersbergen en agua de annique

anneke van giersbergen en agua de annique

Song
Album
Categorie

Shrink

Downloads
1542
Niveau
1
live in europe

Geplaatst door
jan
ProTabs-promo.jpg

C E
|-------------------------------------------------------|
|--—----------------------------------------------------|
|------0--------0--------0--------1--------1-------1----|
|----2---2----2---2----2---2----2---2----2---2---2---2--|
|--3--------3--------3----------------------------------|
|-----------------------------0--------0--------0-------|

F Am Asus2
|------------------------------------------------------------------------|
|--—----1-------1-------1-------1--------1--------1--------0--------0----|
|-----2---2---2---2---2---2---2---2----2---2----2---2----2---2----2---2--|
|------------------------------------------------------------------------|
|------------------------------------0--------0--------0--------0--------|
|--1--------1-------1-------1--------------------------------------------|


Intro:
C E (X 2)

C E
To feel this great urge
C E
To hold and embrace you
C E
I slowly dry out
C E F Am Asus2
Aaaaaahhhhh

F
I shrink and shrink
Am Asus2
Until I'm gone
F
Nothing to make out of me
Am Asus2
Oh what the hell went wrong
F
My heart gets pulled out
Am Asus2
Into your direction
F
It's no use
Am Asus2
You have forsaken me

Solo:
C E (X 4)

F
I shrink and shrink
Am Asus2
Until I'm gone
F
Nothing to make out of me
Am Asus2
Oh what the hell went wrong
F
My heart gets pulled out
Am Asus2
Into your direction
F
It's no use
Am Asus2
You have forsaken me

F Am Asus2 (X 2)


ProTabs promo.jpg

Onbeperkt en gratis toegang tot alle 25.000
Tabs & Chords en direct meespelen met

Artiest Liedje

...

Gitaarakkoorden anneke van giersbergen en agua de annique - Shrink

Dankzij de bladmuziek op deze pagina wordt het een stuk makkelijker om met de gitaar mee te spelen met Shrink van anneke van giersbergen en agua de annique De ProTabs van Gitaartabs worden door onze professionele gitaardocenten samengesteld. De tabs en chords zijn door leden zelf geplaatst. Deze undefined van anneke van giersbergen en agua de annique met Shrink is voor je geschreven door jan

Tabs & Chords van anneke van giersbergen en agua de annique - Shrink

Bij de ProTabs delen we niet alleen de tablatuur maar ook de speelwijze van Shrink Met een beetje gitaar ervaring moet je dit gitaarliedje zeker kunnen spelen, maar als het niet lukt zijn we er altijd om je te helpen. Door een gratis account aan te maken krijg je niet alleen toegang tot deze tab ,akkoorden & tabs van Shrink maar kun je ook onbeperkt meespelen met een van de meer dan 25.000 andere tabs & chords in onze database.

Plaats opmerking

Verstuur

Beoordeel deze song

Rate UsDon’t love itNot greatGoodGreatLove itRate Us

Bedankt voor je beoordeling!