Droomkoninging

Gitaarliedjes, tabs & akkoorden (chords) Droomkoninging - blof

Songtype: Tab

arrow&v

Markeer als favoriet

Favoriet

Gemarkeerd als favoriet

Capo:

0

blof

blof

Song
Album
Categorie

Droomkoninging

Downloads
889
Niveau
3
naakt onder de hemel

Geplaatst door
jacco nijssen
ProTabs-promo.jpg

AKKOORDEN :
E x022xx
G5 320033
Cadd9 X32033
D X00232


1 INTRO)
E-|-----------------------------------|-
B-|-----------------------------------|-
G-|--2-x-x-2----------2-x-x-2---------|-
D-|--2-x-x-2----------2-x-x-2---------|-
A-|--0-x-x-0--0-(0)---0-x-x-0--0H3H4--|-
E-|-----------0--2~~------------------|-
| 4x |


2 COUPLET a)
(4x)
E-------------------------------------
B-------------------------------------
G---2-x-x-2----------2-x-x-2----------
D---2-x-x-2----------2-x-x-2----------
A---0-x-x-0--0-(0)---0-x-x-0--0H3H4---
E------------0--2~~-------------------
"Toen mijn koningin nog een klein prinsesje was..." enz.

2 COUPLET b)
E
"Waarop ik onze namen..." enz.

Cadd9 D D
E-----3------------------2----2------------------
B-----3------------------3----3------------------
G-----0------------------2----2------------------
D-----2------------------0----0------------------
A--3--3------------------0----0------------------
E------------------------------------------------
"O, komt ooit die dag, mijn hemelse geschenk."

E E E E
E---------------------------------------------------
B---------------------------------------------------
G---2-x-x-2---------------2-x-x-2-------------------
D---2-x-x-2---------------2-x-x-2-------------------
A---0-x-x-0--0H3H4--------0-x-x-0--0H3H4------------
E---------------------------------------------------
"Waarop zij naar me kijkt en weet wat ik dan denk."

Cadd9 D D
E---3------------------2----2-----3--------------------
B---3------------------3----3-----3--------------------
G---0------------------2----2-----0--------------------
D---2------------------0----0-----0--------------------
A---3------------------0----0-----2--------------------
E---------------------------------3--------------------
"O, komt ooit die dag, o zo mooi. O, vertel het mij."


3 REFREIN)
E-------------------------------------
B-----------------8-----------7-------
G-7---7---x---x---7-----------7-------
D-7---7---x---x---5-----------5-------
A-5---5---x---x-----------------------
E-------------------------------------
"Droomkoningin bestijgt haar troon."

E--------------------------------
B---------------------8---8---8--
G-5---5---4---4---4---7---7---7--
D-5---5---4---4---4---5---5---5--
A-3---3---2---2---2--------------
E--------------------------------
"Ze tilt haar rokken op."

E-------------------------------------
B-----------------8-----------7-------
G-7---7---x---x---7-----------7-------
D-7---7---x---x---5-----------5-------
A-5---5---x---x-----------------------
E-------------------------------------
"Droomkoningin is ongekroond."

E--------------------------------
B---------------------8---8---8--
G-5---5---4---4---4---7---7---7--
D-5---5---4---4---4---5---5---5--
A-3---3---2---2---2--------------
E--------------------------------
"Maar zij treedt stap voor stap hogerop."


4 SOLO)
E------------------------------------------------
B-------------------/10-10----------------------
G--6--7--6--7/9--9----------9-9-6--7--9\/\/~~---
D------------------------------------------------
A------------------------------------------------
E------------------------------------------------
(Whammy bar)

E------------------------------------------------------------------
B--/10-10----------------------------------------------------------
G----------9--6-6-7-7/9\7-6----------------------------------------
D----------------------------7~-7-9--9b11--9b11--9b11r9p7--9--7~~--
A------------------------------------------------------------------
E------------------------------------------------------------------




TEKST:

Toen mijn koningin nog een klein prinsesje was
Keek ik haar altijd na op straat en vroeg me telkens af
Komt er ooit een dag voordat ik sterf
Waarop ik onze namen in een boomstam kerf
O, komt ooit die dag, mij hemelse geschenk
Waarop zij naar me kijkt en weet wat ik dan denk
O, komt ooit die dag, o zo mooit
O, vertel het mij

Droomkoningin bestijgt haar troon
Ze tilt haar rokken op
Droomkoningin is ongekroond
Maar zij treedt stap voor stap hogerop

Toen mijn koningin nog een klein prinsesje was
Wist ik dat zij de Ene was en vroeg me telkens af
Komt er ooit een dag, zo mooi en groot
Waarop ik voor haar vecht en draken dood
O, komt ooit die dag waar ik al lang op wacht
Waarop ze me ziet staan en straalt in al haar pracht
O, komt ooit die dag, o zo mooi
O, vertel het mij

Droomkoningin bestijgt haar troon
Ze tilt haar rokken op
Droomkoningin is ongekroond
Maar zij treedt stap voor stap hogerop (2x)

Mijn koningin is nu de vrouw die ik al zag
Nog steeds kijk ik haar na op straat en vraag me telkens af
Komt er ooit een dag, zo wonderbaar
Dat we onze ogen opslaan na elkaar
O, komt ooit die dag, die ons voorgoed verbindt
Waarop ze naar me reikt en mij met wit verblindt
O, komt ooit die dag, o zo mooi
O, vertel het mij

Droomkoningin bestijgt haar troon
Ze tilt haar rokken op
Droomkoningin is ongekroond
Maar zij treedt stap voor stap hogerop (2x)

ProTabs promo.jpg

Onbeperkt en gratis toegang tot alle 25.000
Tabs & Chords en direct meespelen met

Artiest Liedje

...

Gitaarakkoorden blof - Droomkoninging

Dankzij de bladmuziek op deze pagina wordt het een stuk makkelijker om met de gitaar mee te spelen met Droomkoninging van blof De ProTabs van Gitaartabs worden door onze professionele gitaardocenten samengesteld. De tabs en chords zijn door leden zelf geplaatst. Deze undefined van blof met Droomkoninging is voor je geschreven door jacco nijssen

Tabs & Chords van blof - Droomkoninging

Bij de ProTabs delen we niet alleen de tablatuur maar ook de speelwijze van Droomkoninging Met een beetje gitaar ervaring moet je dit gitaarliedje zeker kunnen spelen, maar als het niet lukt zijn we er altijd om je te helpen. Door een gratis account aan te maken krijg je niet alleen toegang tot deze tab ,akkoorden & tabs van Droomkoninging maar kun je ook onbeperkt meespelen met een van de meer dan 25.000 andere tabs & chords in onze database.

Plaats opmerking

Verstuur

Beoordeel deze song

Rate UsDon’t love itNot greatGoodGreatLove itRate Us

Bedankt voor je beoordeling!