Harder dan ik hebben kan

Gitaarliedjes, tabs & akkoorden (chords) Harder dan ik hebben kan - blof

Songtype: Tab

arrow&v

Markeer als favoriet

Favoriet

Gemarkeerd als favoriet

Capo:

0

blof

blof

Song
Album
Categorie

Harder dan ik hebben kan

boven

Downloads
1807
Niveau
3
Geplaatst door
sander filius
ProTabs-promo.jpg

AKKOORDEN:
G5 320033
Dsus2 XX0230
Cadd9 X32033
Am7add4 X02233
E* XX0450


1 INTRO)
E-|-----5-------------5-----------5-----5-----|--
B-|-2H3---3-2---0-2H3---3~~---2H3---3-3---3~~-|--
G-|-------------------------------------------|--
D-|-------------------------------------------|--
A-|-------------------------------------------|--
E-|-------------------------------------------|--
2X


2 COUPLET)
H H
E-----12---
B--12------ / Cadd9 / / G5 / / Dsus2 /
"Je buien maken vlekken op mijn hagelwit humeur."

/ Am7add4 / / Cadd9 / / G5 / / Dsus2 / / E* / / Dsus2 /
"Ik heb m'n handen op je heupen, maar m'n hoofd is bij de deur."

/ Am7add4 / / Cadd9 / / G5 / / Dsus2 /
"Ze zeggen dat het went. Ik heb het geprobeerd."

/ Am7add4 / / Cadd9 / / G5 /
"Maar hoe ik het ook wend of keer. M'n huis beschremt niet meer."


3 REFREIN)
E-----------------------------5-----5-------5---5--------5--5------
B-------------------------2H3---3-3-----2H3---3------2H3--3---3~~--
G------------------------------------------------------------------
D------------------------------------------------------------------
A------------------------------------------------------------------
E------------------------------------------------------------------
"Het regent harder dan ik hebben kan. Harder dan ik drinken kan."

E-----------------------------5-----5-------5---5--------5--5---------
B-------------------------2H3---3-3-----2H3---3------2H3--3---3-3~~---
G---------------------------------------------------------------------
D---------------------------------------------------------------------
A---------------------------------------------------------------------
E---------------------------------------------------------------------
"Het regent harder dan de grond aankan. Harder dan ik hebben kan."


4 SOLO)
E-----------------------------------------------------------------------------
B-----------------------------------------------------------------------------
G-----------7-9P7--9b10r9P7--9P7------------7-9P7--9b10r9~-7-7~~--------------
D-------7H9----------------------9~~----7H9-----------------------------------
A--9\-------------------------------------------------------------------------
E--9\-------------------------------------------------------------------------

E-----------------------------------------------------------------------------
B-----------------10--------------------15b16-15b16r15P12---------------------
G------7-9P7--9b10--10r9-9~-7~~---------------------------14b15r14P12--14P12--
D--7H9----------------------------X-X-----------------------------------------
A---------------------------------X-X-----------------------------------------
E-----------------------------------------------------------------------------

E---------------------------------------------------------------------------
B--------12--------------12-----12---12~~-----------------------------------
G--------12--------------12-----12--11~~----11H12-11-----11H12-11-----------
D--14-12----14-14~----------X-X----------------------12-----------12-12/14--
A------------------12H14----X-X---------------------------------------------
E---------------------------------------------------------------------------

E--------------------------------------------12-----------------------------
B--------------------------------------------12-----------------------------
G--------------11-11H12-11~--11-12-12H14-12---------------------------------
D--12H14-12H14--------------------------------------------------------------
A---------------------------------------------------------------------------
E---------------------------------------------------------------------------




TEKST:

Je buien maken vlekken op mijn hagelwit humeur.
Ik heb m'n handen op je heupen, maar m'n hoofd is bij de deur.
Ze zeggen dat het went. Ik heb het geprobeerd.
Maar hoe ik het ook wend of keer. M'n huis beschermt niet meer.

Het regent harder dan ik hebben kan.
Harder dan ik drinken kan.
Het regent harder dan de grond aankan.
Harder dan ik hebben kan.

Je buien zijn de wolken aan mijn hemelsblauw humeur.
Ik heb m'n handen op je heupen, maar m'n hoofd is bij de duer.
Je ogen blijven grijs, ontkennen elke kleur.
Het is alsof hier niemand woont, alsof er niets gebeurt.

Het regent harder dan ik hebben kan.
Harder dan ik drinken kan.
Het regent harder dan de grond aankan.
Harder dan ik hebben kan.

Je buien zijn te donker voor mijn hemelsblauw humeur.
Want mijn hoofd is in de wolken en m'n hand al bij de deur.

Harder dan ik hebben kan.
Harder dan ik drinken kan.
Het regent harder dan de grond aankan.
Harder dan ik hebben kan. (2x)

ProTabs promo.jpg

Onbeperkt en gratis toegang tot alle 25.000
Tabs & Chords en direct meespelen met

Artiest Liedje

...

Gitaarakkoorden blof - Harder dan ik hebben kan

Dankzij de bladmuziek op deze pagina wordt het een stuk makkelijker om met de gitaar mee te spelen met Harder dan ik hebben kan van blof De ProTabs van Gitaartabs worden door onze professionele gitaardocenten samengesteld. De tabs en chords zijn door leden zelf geplaatst. Deze undefined van blof met Harder dan ik hebben kan is voor je geschreven door sander filius

Tabs & Chords van blof - Harder dan ik hebben kan

Bij de ProTabs delen we niet alleen de tablatuur maar ook de speelwijze van Harder dan ik hebben kan Met een beetje gitaar ervaring moet je dit gitaarliedje zeker kunnen spelen, maar als het niet lukt zijn we er altijd om je te helpen. Door een gratis account aan te maken krijg je niet alleen toegang tot deze tab ,akkoorden & tabs van Harder dan ik hebben kan maar kun je ook onbeperkt meespelen met een van de meer dan 25.000 andere tabs & chords in onze database.

Plaats opmerking

Beoordeel deze song

Rate UsDon’t love itNot greatGoodGreatLove itRate Us

Bedankt voor je beoordeling!