Hemingway

Gitaarliedjes, tabs & akkoorden (chords) Hemingway - blof

Songtype: Tab

arrow&v

Markeer als favoriet

Favoriet

Gemarkeerd als favoriet

Capo:

0

blof

blof

Song
Album
Categorie

Hemingway

Downloads
2972
Niveau
2

Geplaatst door
ilse136
ProTabs-promo.jpg

Hemingway - blof

Bm X24432
Bm/E 024432
Bsus2/G 3X442X
Bsus2 224422
F# 244322
G 355433
Am 577655
D5 X577XX
C#5 X466XX
E5 X799XX


1 INTRO)
Bm Bm/E Bsus2/G Bsus2
E-|-------------------------------------------|--
B-|------3--------3--------2--------2---------|--
G-|--------4--------4--------4--------4-------|--
D-|----4--------4--------4--------4-----------|--
A-|--2----------------------------------------|--
E-|-----------0--------3--------2-------------|--
2X

INTRO-SOLO:
Bm Bm/E Bsus2/G Bsus2
e|---7-10-7-------7-7-----|-------------------|-
B|--7-------10-7------0---|-------------------|-
G|-7----------------------|------4p2----------|-
D|----------------------4-|----------4-2h4----|-
A|------------------------|-------------------|-
E|------------------------|-------------------|-

Bm Bm/E Bsus2/G Bsus2
e|-7-7--------------|-7-5---5----------------14-|-
B|-----7------------|-----7---7-7-5-5/7---/8-----|-
G|------------------|----------------------------|-
D|------------------|----------------------------|-
A|------------------|----------------------------|-
E|------------------|----------------------------|-

2 COUPLET)
/ Bm / / Bm/E / / Bsus2/G / / Bsus2 /
"Onder de zon en een hemelsblauwe hemel"

/ Bm / / Bm/E / / Bsus2/G / / Bsus2 /
"Wachten straten op bewoners of voorbijgangers van ver"

/ Bm / / Bm/E / / Bsus2/G / / Bsus2 /
"Ik spits mijn oren en probeer iets te doorgronden"

/ Bm / / Bm/E / / Bsus2/G / / Bsus2 /
"Waarvan ik het bestaan vermoed maar niets echt zeker weet"


3 REFREIN)
/ F# / / Bsus2 /
"Hoor je de stad?"

/ G /
"Mijn hemelse verslaving"

/ F# / / Bsus2 /
"Voel je de adem?"

/ G /
"Tussen de schemer en de avond"

/ Am /
"Verdwaal ik elke keer"

/ G / / F# /
"En de stem van de zee"

/ Bm/E / / F# /
"Neemt me mee naar huis"

/ G / / F# /
"Ik ben geen Hemingway"


4 BRUG)
/ D5 / C#5 /
/ D5 / C#5 /
/ E5 / Am / F# / G /
(Herhaal einde refrein 4x)

5 OUTRO)
/ Bm / G / F# / Bm /




TEKST:

Onder de zon en een hemelsblauwe hemel
Wachten straten op bewoners
Of voorbijgangers van ver
Ik spits mijn oren en probeer iets te doorgronden
Waarvan ik het bestaan vermoed
Maar niets echt zeker weet


Hoor je de stad?
Mijn hemelse verslaving
Voel je de adem?
Tussen de schemer en de avond
Verdwaal ik elke keer

En de stem van de zee
Neemt me mee naar huis
Ik ben geen Hemingway

Debajo de ls luna y un chielo estrellado
Mujeres esperan sus hombres
O las gentes que pasan
Tomandome mi mojito, imaginando
De-donde vengo despues del viaje
Y que abrazo mi amada

Pruebas el mar?
Mi corazón escondido
Scientes el aire
Entre la madrugada y el sol
Siempre me pierdo

Y el sonido del mar
Me devuelve a casa
No soy Hemingway

En de stem van de zee
Neemt me mee naar huis
Ik ben geen Hemingway

ProTabs promo.jpg

Onbeperkt en gratis toegang tot alle 25.000
Tabs & Chords en direct meespelen met

Artiest Liedje

...

Gitaarakkoorden blof - Hemingway

Dankzij de bladmuziek op deze pagina wordt het een stuk makkelijker om met de gitaar mee te spelen met Hemingway van blof De ProTabs van Gitaartabs worden door onze professionele gitaardocenten samengesteld. De tabs en chords zijn door leden zelf geplaatst. Deze undefined van blof met Hemingway is voor je geschreven door ilse136

Tabs & Chords van blof - Hemingway

Bij de ProTabs delen we niet alleen de tablatuur maar ook de speelwijze van Hemingway Met een beetje gitaar ervaring moet je dit gitaarliedje zeker kunnen spelen, maar als het niet lukt zijn we er altijd om je te helpen. Door een gratis account aan te maken krijg je niet alleen toegang tot deze tab ,akkoorden & tabs van Hemingway maar kun je ook onbeperkt meespelen met een van de meer dan 25.000 andere tabs & chords in onze database.

Plaats opmerking

Verstuur

Beoordeel deze song

Rate UsDon’t love itNot greatGoodGreatLove itRate Us

Bedankt voor je beoordeling!