Lieveling

Gitaarliedjes, tabs & akkoorden (chords) Lieveling - blof

Songtype: Tab

arrow&v

Markeer als favoriet

Favoriet

Gemarkeerd als favoriet

Capo:

0

blof

blof

Song
Album
Categorie

Lieveling

helder

Downloads
1141
Niveau
2
Geplaatst door
falconer
ProTabs-promo.jpg

Op de CD "Helder" is dit een vrij rustig nummer maar zanger/gitarist Paskal
Jacobsen speelt dit nummer live met vette distortion. Het onderstaande is
gebaseerd op hun optreden tijdens de Uitmarkt 1998.


AKKOORDEN:
Bm x24432 E 022100
Bm+7 x24332 G 320033
D xx0232 C x32010


Bm Bm+7

E |--------------------------2-2-x---------------------------2-2-x-------
B |--------------------------3-3-x---------------------------3-3-x-------
G |--------------4-4-4---4---4-4-x---------------3-3-3---3---3-3-x-------
D |--------------4-4-4---4---4-4-x---------------4-4-4---4---4-4-x-------
A |--2~~~--------2-2-2---2---2-2-x---2~~~--------2-2-2---2---2-2-x-------
E |----------------------------------------------------------------------
* * * * * * * *

D E

E |--2-------0h2-----3p2-------------0-------x-------0-------------------
B |--3-----------3-------3-----------0-------x---------------------------
G |--2-------------2-------------2---1-------x---0h1---------------------
D |--0-----------------------------0-2-------x---------------------------
A |----------------------------------2-------x---------------------------
E |----------------------------------0-------x---------------------------
* * * * * * * *


Bm Bm+7
Je kijkt omlaag, je hebt me net gevraagd
D E
Of m'n handen ook zo koud zijn of moet ik daarvoor jou zijn?
Bm Bm+7
Het antwoord blijf ik schuldig, je zwijgt en wacht geduldig
D E
Tot ik eindelijk je hand grijp en we weten allebei
G C
De jouwe lijkt wel gloeiend heet, zo koud is die van mij


Bm
Lieve lieveling ga door
G
Lieve lieveling ga door
D E
Lieve lieveling ga door waar je was gebleven
G C
Ga niet weg, maar blijf nog even


Bm Bm+7
Je kijkt naar de grond als een twijfelende bruid
D E
Je krijgt het er niet uit, het blijft weer steken in je mond
G C
Dat ene hoge woord, ik heb het niet gehoord

D E
Ik kijk weg en ik staar maar naar m'n schoenen
D E
Ik kijk weg om m'n veters vast de doen
G C
Om op te staan, om weg te gaan

Maar jij zegt...

D G

E |--------5---------------5---------------5---------3p2-3p2--------
B |--2h3-------------2h3-------------2h3----------------------------
G |-----------------------------------------------------------------
D |-----------------------------------------------------------------
A |-----------------------------------------------------------------
E |-----------------------------------------------------------------
* * * * * * * *

(op de wijze van 'lieve lieveling ga door')

E |----------2-----3-2-0-----0---------------2-----3-2-0-----0------
B |----------------------3-------3-----------------------3-------3--
G |-----------------------------------------------------------------
D |-----------------------------------------------------------------
A |-----------------------------------------------------------------
E |-----------------------------------------------------------------
* * * * * * * *

ProTabs promo.jpg

Onbeperkt en gratis toegang tot alle 25.000
Tabs & Chords en direct meespelen met

Artiest Liedje

...

Gitaarakkoorden blof - Lieveling

Dankzij de bladmuziek op deze pagina wordt het een stuk makkelijker om met de gitaar mee te spelen met Lieveling van blof De ProTabs van Gitaartabs worden door onze professionele gitaardocenten samengesteld. De tabs en chords zijn door leden zelf geplaatst. Deze undefined van blof met Lieveling is voor je geschreven door falconer

Tabs & Chords van blof - Lieveling

Bij de ProTabs delen we niet alleen de tablatuur maar ook de speelwijze van Lieveling Met een beetje gitaar ervaring moet je dit gitaarliedje zeker kunnen spelen, maar als het niet lukt zijn we er altijd om je te helpen. Door een gratis account aan te maken krijg je niet alleen toegang tot deze tab ,akkoorden & tabs van Lieveling maar kun je ook onbeperkt meespelen met een van de meer dan 25.000 andere tabs & chords in onze database.

Plaats opmerking

Beoordeel deze song

Rate UsDon’t love itNot greatGoodGreatLove itRate Us

Bedankt voor je beoordeling!