Zeven nachten

Gitaarliedjes, tabs & akkoorden (chords) Zeven nachten - blof

Songtype: Tab

arrow&v

Markeer als favoriet

Favoriet

Gemarkeerd als favoriet

Capo:

0

blof

blof

Song
Album
Categorie

Zeven nachten

helder

Downloads
170
Niveau
3
Geplaatst door
jacco nijssen
ProTabs-promo.jpg

Het hele nummer staat in 12/8 en is dus echte blues.
Jacco (een goede vriend van me) heeft de live versie getabt en deze
verschilt vrij veel met de studio versie. Naar onze mening is de live versie
een stuk leuker om te spelen.
Deze versie is te vinden op de single "Harder dan ik hebben kan".

Note:
"PM" staat voor palmmute. Deze noten dien je gedemd te spelen, door met je
rechterhand op de brug de snaren te dempen.
In de solo van dit nummer zit het nodige buigwerk, voor een uitleg hoe dat
gaat, lees de sectie "Hoe lees ik TAB?" op de blof@pagina.nl site. Het is misschien wat
oefenen maar dan kan je ook een leuke solo spelen.


AKKOORDEN:
G5 320033 D XX0232
Dsus2 XX0230 Em7 X22033
Cadd9 X32033


1 INTRO) H H
E-------------------------------------------12-----------------------------
B----------------------------------------12--------------------------------
G--------------------------------------------------------------------------
D--------------------------------------------------------------------------
A--------------------------------------------------------------------------
E--14\0----------2-3-2~-0-3P2-0--------------------------------------------

pm pm pm pm pm pm
E------------|----7-|----7-|---------7-----7-----6~-6-----6H7--7-----------
B------------|-5----|------|------5-----5-----5--------5-------------------
G--------0---|------|-5----|-7~--------------------------------------------
D------------|------|------|-----------------------------------------------
A--15\-------|------|------|-----------------------------------------------
E------------|------|------|-----------------------------------------------
6x 5X

pm pm pm
E-----7-----7-----7--------------------------------------------------------
B--------------------------------------------------------------------------
G--5-----5-----5-----5~--5-------------------------------------------------
D--------------------------------------------------------------------------
A--------------------------------------------------------------------------
E--------------------------------------------------------------------------


2 COUPLET a)
pm pm
E--|----7-|----7-|-----
B--|-5----|------|-----
G--|------|-5----|-7~--
D--|------|------|-----
A--|------|------|-----
E--|------|------|-----
6x 5X

2 COUPLET b) Dm
E--------0-----0----------0-----0-------0-----0-----0----------------------
B----------------------------------0H1-----1-----1-------3-----------------
G--0--2-----2-----2--2/4-----4---------------------------2-----------------
D--------------------------------------------------------0-----------------
A--------------------------------------------------------------------------
E--------------------------------------------------------------------------
"Bij iedere kroeg die sluit ga ik steevast onderuit"

G5 Dsus2 Em7 Cadd9
E----------3--------3---3-----
B----------3--3-----3---3-----
G----------0--2-----0---0-----
D----------0--0-----0---2-----
A----------2--------2---3-----
E----------3------------------
"door jou."


3 REFREIN)
/ G5 / / D / Cadd9 / / G5 / / D / / Cadd9 /
"Zeven nachten onderweg. Zeven nachten lang op zoek naar jou." enz.


4 SOLO)
E--------------------------------------------------------------------------
B--------------------------------------------------------------------------
G--------------------------------------------------------------------------
D--7b9------9r8b9r8b9r8b9r7----5-----5---7b9-5------/12~---9~--------------
A--------------------------------5H7---7-------7~--------------7b8r7--5----
E--------------------------------------------------------------------------

E--------------------------------------------------------------------------
B--15b17~---15b17r15P12----------------------------------------------------
G------------------------14--12~----------12--11---------------------------
D---------------------------------12--14----------12--14----------12-------
A---------------------------------------------------------12H14------------
E--------------------------------------------------------------------------

E--15H12--12---------------------------------------------------------------
B--------------------------------------------------------------------------
G-------------12---------------------12b13------12--12b13-------12---------
D-----------------12--14---------12---------14-------------14~------14\----
A-------------------------12H14--------------------------------------------
E--------------------------------------------------------------------------




TEKST (live):

Zeven nachten lang en niets van wat ik doe voelt goed.
Zeven nachten zoeken, maar er is niets dat er echt toe doet.
En er valt ook niets te vinden, want ik ben het ook helemaal kwijt.
Ik wil wel weg, maar ik kan niet weg. En ik blijf steeds tot de hoogste tijd.
Bij iedere kroeg die sluit, ga ik steevast onderuit door jou.

Zeven nachten onderweg.
Zeven nachten lang op zoek naar jou.
Zeven nachten onderweg.
Zeven nachten lang op zoek naar jou.

Zeven nachten lang en alles wat ik zie staat scheef.
Zeven nachten zuipen en ik hoopte dat ik dronken bleef.
Maar steeds wordt ik weer nuchter en steeds weet ik weer waar ik ben.
Ik wil wel weg, maar ik kan niet weg. Hoewel ik echt de weg wel ken.
Wat ik zeggen wou, is dat ik alleen maar leef voor jou.

Zeven nachten onderweg.
Zeven nachten lang op zoek naar jou.
Zeven nachten onderweg.
Zeven nachten lang op zoek naar jou.
Op zoek naar jou, op zoek naar jou!

Zeven nachten onderweg.
Zeven nachten lang op zoek naar jou.
Zeven nachten onderweg.
Zeven nachten lang op zoek naar jou.
Op zoek naar jou, op zoek naar jou.

ProTabs promo.jpg

Onbeperkt en gratis toegang tot alle 25.000
Tabs & Chords en direct meespelen met

Artiest Liedje

...

Gitaarakkoorden blof - Zeven nachten

Dankzij de bladmuziek op deze pagina wordt het een stuk makkelijker om met de gitaar mee te spelen met Zeven nachten van blof De ProTabs van Gitaartabs worden door onze professionele gitaardocenten samengesteld. De tabs en chords zijn door leden zelf geplaatst. Deze undefined van blof met Zeven nachten is voor je geschreven door jacco nijssen

Tabs & Chords van blof - Zeven nachten

Bij de ProTabs delen we niet alleen de tablatuur maar ook de speelwijze van Zeven nachten Met een beetje gitaar ervaring moet je dit gitaarliedje zeker kunnen spelen, maar als het niet lukt zijn we er altijd om je te helpen. Door een gratis account aan te maken krijg je niet alleen toegang tot deze tab ,akkoorden & tabs van Zeven nachten maar kun je ook onbeperkt meespelen met een van de meer dan 25.000 andere tabs & chords in onze database.

Plaats opmerking

Beoordeel deze song

Rate UsDon’t love itNot greatGoodGreatLove itRate Us

Bedankt voor je beoordeling!