Polyamorous

Gitaarliedjes, tabs & akkoorden (chords) Polyamorous - breaking benjamin

Songtype: Tab

arrow&v

Markeer als favoriet

Favoriet

Gemarkeerd als favoriet

Capo:

0

breaking benjamin

breaking benjamin

Song
Album
Categorie

Polyamorous

Downloads
3725
Niveau
2

Geplaatst door
[b]lack[a]ngel
ProTabs-promo.jpg

Eb|---------------------|
Bb|---------------------|
Gb|---------------------|
Db|---------------------|
Ab|---------------------|
Db|--9~--5~--9~--5~-----|

Intro:

Eb|---------------------------------|
Bb|---------------------------------|
Gb|--4-4-4--------------------------|
Db|--4-4-4---5-5-5---5-5-0-5-5-0----| x4
Ab|--2-2-2---5-5-5---5-5-0-5-5-0----|
Db|----------0-0-0---5-5-0-5-5-0----|


Eb|---------------------------------------|
Bb|---------------------------------------|
Gb|---------------------------------------|
Db|--9*-9*-----------9*-9*----------------| x4
Ab|--9*-9*-10-10-9-9-9*-9*-12-12-10-10----|
Db|--9*-9*-----------9*-9*----------------|


Couplet

Eb|-----------------------------------------------------------|
Bb|-----------------------------------------------------------|
Gb|-----------------------------------------------------------|
Db|------5-5-4-4------5-5-4-4-------4-4-5-5------5-5-4-4------| x2
Ab|--2-2------------------------------------------------------|
Db|---------------4-4----------5-5-----------2-2--------------|


Speel dit stukje aan het einde van de 2e keer:

Eb|--------------|
Bb|--------------|
Gb|--------------|
Db|--x—2-2-2-4---|
Ab|--x—2-2-2-4---|
Db|--x-2-2-2-4---|

Refrein

Eb|---------------------|
Bb|---------------------|
Gb|---------------------|
Db|--0h7-5~-0-5-4-0h4---| x2
Ab|--0h7-5~-0-5-4-0h4---|
Db|--0h7-5~-0-5-4-0h4---|

Eb|---------------------------|
Bb|---------------------------|
Gb|---------------------------|
Db|--0h7-5-x-x-x-0-4-5-5-4----|
Ab|--0h7-5-x-x-x-0-4-5-5-4----|
Db|--0h7-5-x-x-x-0-4-5-5-4----|

Eb|---------------------------------------|
Bb|---------------------------------------|
Gb|---------------------------------------|
Db|--9*-9*-----------9*-9*----------------| x2
Ab|--9*-9*-10-10-9-9-9*-9*-12-12-10-10----|
Db|--9*-9*-----------9*-9*----------------|


Couplet

Eb|-----------------------------------------------------------|
Bb|-----------------------------------------------------------|
Gb|-----------------------------------------------------------|
Db|------5-5-4-4------5-5-4-4-------4-4-5-5------5-5-4-4------| x2
Ab|--2-2------------------------------------------------------|
Db|---------------4-4----------5-5-----------2-2--------------|

Eb|--------------|
Bb|--------------|
Gb|--------------|
Db|--x—2-2-2-4---|
Ab|--x—2-2-2-4---|
Db|--x-2-2-2-4---|

Refrein:

Eb|---------------------|
Bb|---------------------|
Gb|---------------------|
Db|--0h7-5~-0-5-4-0h4---| x4
Ab|--0h7-5~-0-5-4-0h4---|
Db|--0h7-5~-0-5-4-0h4---|

Eb|---------------------------|
Bb|---------------------------|
Gb|---------------------------|
Db|--0h7-5-x-x-x-0-4-5-5-4----|
Ab|--0h7-5-x-x-x-0-4-5-5-4----|
Db|--0h7-5-x-x-x-0-4-5-5-4----|

Bridge:

Eb|---------------------------------|
Bb|---------------------------------|
Gb|--4~--6-7------------------------|
Db|--4~--6-7-4~--5-4-5~--4-2~--4----| x2
Ab|--2~--4-5-4~--5-4-5~--4-2~--4----|
Db|----------4~--5-4-5~--4-2~--4----|


Eb|---------------------------------------------------------------------|
Bb|---------------------------------------------------------------------|
Gb|---------------------------------------------------------------------|
Db|---------------------------------------------------------------------|
Ab|--2-2-2-2-2-2-2-2-4-4-4-4-5-5-5-5------------------------------------|
Db|----------------------------------4-4-4-4-4-4-4-4--5-5-5-5-4-4-4-4---|

Eb|--------------------------------------------------------------------|
Bb|--------------------------------------------------------------------|
Gb|--------------------------------------------------------------------|
Db|--------------------------------------------------------------------|
Ab|--------------------------------------------------------------------|
Db|--5-5-5-5-5-5-5-5-5-5-5-5-4-4-4-4-2-2-2-2-2-2-2-2-4-4-4-4-4-4-4-4---|



Eb|----------------------------------------------------------------------|
Bb|----------------------------------------------------------------------|
Gb|--4-4-4-4-4-4-4-4-6-6-6-6-7-7-7-7-------------------------------------|
Db|--4-4-4-4-4-4-4-4-6-6-6-6-7-7-7-7-4-4-4-4-4-4-4-4--5-5-5-5-4-4-4-4----|
Ab|--2-2-2-2-2-2-2-2-4-4-4-4-5-5-5-5-4-4-4-4-4-4-4-4--5-5-5-5-4-4-4-4----|
Db|----------------------------------4-4-4-4-4-4-4-4--5-5-5-5-4-4-4-4----|


Eb|---------------------------------------------------------------------|
Bb|---------------------------------------------------------------------|
Gb|---------------------------------------------------------------------|
Db|--5-5-5-5-5-5-5-5-5-5-5-5-4-4-4-4-2-2-2-2-2-2-2-2-4-4-4-4-4-4-4-4----|
Ab|--5-5-5-5-5-5-5-5-5-5-5-5-4-4-4-4-2-2-2-2-2-2-2-2-4-4-4-4-4-4-4-4----|
Db|--5-5-5-5-5-5-5-5-5-5-5-5-4-4-4-4-2-2-2-2-2-2-2-2-4-4-4-4-4-4-4-4----|


Eb|----------------------------------------------|
Bb|----------------------------------------------|
Gb|----------------------------------------------|
Db|------5-5-4-4-------5-5-4-4------5-5-4-4--0---|
Ab|------------------------------------------0---|
Db|--0-0----------0-0----------0-0-----------0---|

Refrein:

Eb|---------------------|
Bb|---------------------|
Gb|---------------------|
Db|--0h7-5~-0-5-4-0h4---| x4
Ab|--0h7-5~-0-5-4-0h4---|
Db|--0h7-5~-0-5-4-0h4---|


Eb|---------------------------|
Bb|---------------------------|
Gb|---------------------------|
Db|--0h7-5-x-x-x-0-4-5-5-4----|
Ab|--0h7-5-x-x-x-0-4-5-5-4----|
Db|--0h7-5-x-x-x-0-4-5-5-4----|

Eb|---------------------------|
Bb|---------------------------|
Gb|---------------------------|
Db|--0-4-5-x-x-x-0-4-5-5-4----| x2
Ab|--0-4-5-x-x-x-0-4-5-5-4----|
Db|--0-4-5-x-x-x-0-4-5-5-4----|

Eb|---------------------------------------|
Bb|---------------------------------------|
Gb|---------------------------------------|
Db|--9*-9*-----------9*-9*----------------| x2 Then...
Ab|--9*-9*-10-10-9-9-9*-9*-12-12-10-10----|
Db|--9*-9*-----------9*-9*----------------|

End:

Eb|------|
Bb|------|
Gb|------|
Db|--9*--
Ab|--9*--
Db|--9*--

* = Mute

ProTabs promo.jpg

Onbeperkt en gratis toegang tot alle 25.000
Tabs & Chords en direct meespelen met

Artiest Liedje

...

Gitaarakkoorden breaking benjamin - Polyamorous

Dankzij de bladmuziek op deze pagina wordt het een stuk makkelijker om met de gitaar mee te spelen met Polyamorous van breaking benjamin De ProTabs van Gitaartabs worden door onze professionele gitaardocenten samengesteld. De tabs en chords zijn door leden zelf geplaatst. Deze undefined van breaking benjamin met Polyamorous is voor je geschreven door [b]lack[a]ngel

Tabs & Chords van breaking benjamin - Polyamorous

Bij de ProTabs delen we niet alleen de tablatuur maar ook de speelwijze van Polyamorous Met een beetje gitaar ervaring moet je dit gitaarliedje zeker kunnen spelen, maar als het niet lukt zijn we er altijd om je te helpen. Door een gratis account aan te maken krijg je niet alleen toegang tot deze tab ,akkoorden & tabs van Polyamorous maar kun je ook onbeperkt meespelen met een van de meer dan 25.000 andere tabs & chords in onze database.

Plaats opmerking

Verstuur

Beoordeel deze song

Rate UsDon’t love itNot greatGoodGreatLove itRate Us

Bedankt voor je beoordeling!