Diary of jane, acoustisch

Gitaarliedjes, tabs & akkoorden (chords) Diary of jane, acoustisch - breaking benjamin

Songtype: Tab

arrow&v

Markeer als favoriet

Favoriet

Gemarkeerd als favoriet

Capo:

0

breaking benjamin

breaking benjamin

Song
Album
Categorie

Diary of jane, acoustisch

Downloads
169
Niveau
2
Geplaatst door
[b]lack[a]ngel
ProTabs-promo.jpg

OK Ik heb mn best gedaan voor jullie. Het is lastig om zon liedje uit te tabben. Ik heb de akkoorden niet bij naam genoemt volgens mij, gewoon omdat ik het niet wist. Ik heb er wel bij gezet hoe je ze moet spelen. Suc6

Intro
eb||-----2-2-2-2-3--|-----2-2-5-3-2--||
Bb||--0--0-0-0-0-0--|--0--0-0-----0--||
Gb||----------------|-----------0----|| x2
Db||----------------|----------------||
Ab||--2--------2----|--2------0---2--||
Eb||----------------|----------------||

eb||-----2-2-2-2-3--|-----2-2-5-3-2--||
Bb||--0--0-0-0-0-0--|--0--0-0-----0--||
Gb||----------------|-----------0----||
Db||--0-------------|----------------||
Ab||--2--------2----|--4------0---2--||
Eb||----------------|----------------||

eb||-----2-2-2-2-3--|----2-2---------0----||
Bb||--0--0-0-0-0-0--|--0-0-0---------3----||
Gb||----------------|--------------4---4--||
Db||----------------|------------0--------||
Ab||--2--------2----|--2-------2----------||
Eb||----------------|---------------------||

Couplet 1
Bm
If I had to
I would put myself right beside you
So let me ask
Em
Would you like that?
G
Would you like that?
Bm
And I don't mind
If you say this love is the last time
So now I'll ask
Em
Do you like that?
G
Do you like that?

Refrein

Bm G?
Something's getting in the way
D
Something's just about to break
F#m
I will try to find my place in the diary of
(Piano
Jane So tell me how it should be

(Piano
eb||-------------------------------2---||
Bb||--0---0--0----0--0---0--0------0---||
Gb||--0---0--0----0--0---0--0----------||
Db||--------------2--------------------||
Ab||--2---4--5-------2---4--5----------||
Eb||-----------------------------------||
Jane So tell me how it should be


eb||-----2-2-2-2-3--|----2-2---------0----||
Bb||--0--0-0-0-0-0--|--0-0-0---------3----||
Gb||----------------|--------------4---4--||
Db||----------------|------------0--------||
Ab||--2--------2----|--2-------2----------||
Eb||----------------|---------------------||


Couplet 2
Bm
Try to find out what makes you tick
As I lie down
Sore and sick
Em
Do you like that?
G
Do you like that?
Bm
There's a fine line between love and hate
And I don't mind
Em
Just let me say that I like that
G
I like that?


Refrein
Bm G
Something's getting in the way
D
Something's just about to break
F#m Bm
I will try to find my place in the diary of Jane
G
As I burn another page
D
As I look the other way
F#m
I still try to find my place in the diary of
(Piano
Jane So tell me how it should be

(Piano
eb||--------------0----------------2---||
Bb||--0---0--0----0--0---0--0------0---||
Gb||--0---0--0----=--0---0--0----------||
Db||--------------2--------------------||
Ab||--2---4--5-------2---4--5----------||
Eb||-----------------------------------||
Jane So tell me how it should be



eb||---7-9-----|--------------------||
Bb||---0-0-10--|----------10--------||
Gb||-----------|--11-9-11----9-8----|| x2
Db||-----------|-----------------9--||
Ab||--(2)--0---|----------0---------||
Eb||-----------|-----0--------------||

Bridge
F#m D
Desperate, I will crawl
A Fill 1
Waiting for so long
Bm D
No love, there is no love
F#m D
Die for anyone
A Fill 1
What have I become

Fill 1
eb||----0--||
Bb||----0--||
Gb||----7--||
Db||----7--||
Ab||--2/5--||
Eb||-------||

Bm G?
Something's getting in the way
D
Something's just about to break
F#m Bm
I will try to find my place in the diary of Jane
G?
As I burn another page
D
As I look the other way
F#m
I still try to find my place in the diary of Jane

Outro
eb||-----2-2-2-2-3--|-----2-2-5-3-2--||
Bb||--0--0-0-0-0-0--|--0--0-0-----0--||
Gb||----------------|-----------0----||
Db||----------------|----------------||
Ab||--2--------2----|--2------0---2--||
Eb||----------------|----------------||


eb||-----2-2-2-2-3--|-----2-2------------||
Bb||--0--0-0-0-0-0--|--0--0-0-0--0-0--0--||
Gb||----------------|---------0--7-6--4--||
Db||--0-------------|--0------0--0-0--0--||
Ab||--2--------2----|--2------2--5-4--2--||
Eb||----------------|--------------------||


Refrein
Bm D Em G G? F#m
eb||--0---0---0---5---5---0---||
Bb||--0---0---0---5---5---0---||
Gb||--4---7---0---6---6---11--||
Db||--4---7---2---7---7---11--||
Ab||--2---5---2---7---7---9---||
Eb||----------0---5---5-------||



eb||--2--0--0--0--0--||
Bb||--3--0--3--3--2--||
Gb||--4--4--4--0--4--||
Db||--4--4--0--4--0--||
Ab||--2--2--2--2--2--||
Eb||-----------------||

ProTabs promo.jpg

Onbeperkt en gratis toegang tot alle 25.000
Tabs & Chords en direct meespelen met

Artiest Liedje

...

Gitaarakkoorden breaking benjamin - Diary of jane, acoustisch

Dankzij de bladmuziek op deze pagina wordt het een stuk makkelijker om met de gitaar mee te spelen met Diary of jane, acoustisch van breaking benjamin De ProTabs van Gitaartabs worden door onze professionele gitaardocenten samengesteld. De tabs en chords zijn door leden zelf geplaatst. Deze undefined van breaking benjamin met Diary of jane, acoustisch is voor je geschreven door [b]lack[a]ngel

Tabs & Chords van breaking benjamin - Diary of jane, acoustisch

Bij de ProTabs delen we niet alleen de tablatuur maar ook de speelwijze van Diary of jane, acoustisch Met een beetje gitaar ervaring moet je dit gitaarliedje zeker kunnen spelen, maar als het niet lukt zijn we er altijd om je te helpen. Door een gratis account aan te maken krijg je niet alleen toegang tot deze tab ,akkoorden & tabs van Diary of jane, acoustisch maar kun je ook onbeperkt meespelen met een van de meer dan 25.000 andere tabs & chords in onze database.

Plaats opmerking

Beoordeel deze song

Rate UsDon’t love itNot greatGoodGreatLove itRate Us

Bedankt voor je beoordeling!