Still got the blues tab

Gitaarliedjes, tabs & akkoorden (chords) Still got the blues tab - gary moore

Songtype: Tab

arrow&v

Markeer als favoriet

Favoriet

Gemarkeerd als favoriet

Capo:

0

gary moore

gary moore

Song
Album
Categorie

Still got the blues tab

Downloads
2197
Niveau
2
Geplaatst door
gitaartabs
ProTabs-promo.jpg

Still Got the Blues
Gary Moore



E||-----------|----------------------------------------|
B||-----15-17-|--17b--------17b-17-15~-----15\---13-15-|
G||--14-------|----------------------------------------|
D||-----------|----------------------------------------|
A||-----------|----------------------------------------|
E||-----------|----------------------------------------|


----------------------------------------|
--15b--------15r--13~---13\----10-12-13-|
----------------------------------------|
----------------------------------------|
----------------------------------------|
----------------------------------------|


---------------------------------------|------------------------------|
--13b-------13r-13-12~---------10------|------------------------------|
-----------------------------x-----12--|--12b-----------12\-----------|
---------------------------------------|------------------------------|
---------------------------------------|------------------------------|
---------------------------------------|------------------------------|


--------------------------|--------------------------------------|
--------------------------|--------------------------------------|
--------------------------|--------------------------------------|
--------------------------|--------------------------------------|
--------------------------|--x--x--2--2--2--2--2--2--2--2--2--2--|
--------------------------|--------0--0--0--0--0--0--0--0--0--0--|


---------------7------------|---------------5------------|
---------------8------------|---------------5------------|
---------------7------------|---------------5------------|
---------------9------------|---------------4------------|
--7------------7------------|--7------------5------------|
--5-------------------------|--5-------------------------|



--8-------------------------|----------------------------|
--8------------8------------|----------------------------|
--8------------7------------|----------------------------|
--7------------6------------|----------------------------|
--8------------7------------|--7------------7------------|
----------------------------|--5------------5------------|


--------------------------3--|--3~---------------------5---|
----------------------3/5----|---------------------------8-|
-----------------------------|-----------------------------|
-----------------------------|-----------------------------|
-----------------------------|-----------------------------|
-----------------------------|-----------------------------|


---------------------------------|----------------------------|
---------------------------------|------------------------8b--|
--7r-5--------------------7b7p5--|--------------------------7r|
-------7~--------------6---------|----------------------------|
---------------------------------|----------------------------|
---------------------------------|----------------------------|


----------------------------|------------------------------|
----------------------------|----------------------10--13--|
---5------------------------|------------------------------|
-----7~---------------------|------------------------------|
----------------------------|------------------------------|
----------------------------|------------------------------|


-----------------------10------------|----------------------------|
--15b---------------------13p10---13-|------------15b-------------|
-------------------------------------|----------------------------|
-------------------------------------|----------------------------|
-------------------------------------|----------------------------|
-------------------------------------|----------------------------|


--------------------------|----------------------------------|
--------------------------|----------------------------------|
--------------------------|--------7r-7p5--------------------|
--------------------------|---------------7-7-7~---7\--------|
--------------------------|----------------------------------|
--------------------------|----------------------------------|

--------------------------|------------------------------|
--------------------------|--------------------13b----10-|
--------------------------|------------------------------|
--------------------------|------------------------------|
--------------------------|------------------------------|
--------------------------|------------------------------|


------------------------------|--------------------------|
--13r---13b-------------------|--------------------------|
------------------------------|--------------------------|
------------------------------|--------------------------|
------------------------------|--------------------------|
------------------------------|--------------------------|

--------------------------------|------------------------------------------|
--------------------------15-17-|--17b--------17b-17-15~-----15\-----13-15-|
-----------------------14-------|---------------------------------12-------|
--------------------------------|------------------------------------------|
--------------------------------|------------------------------------------|
--------------------------------|------------------------------------------|

----------------------------------------|--------------------------------------|
--15b--------15r--13~---13\----10-12-13-|--13b-------13r---12~-----------10----|
----------------------------------------|----------------------------12-----12-|
----------------------------------------|--------------------------------------|
----------------------------------------|--------------------------------------|
----------------------------------------|--------------------------------------|

--------------------------------------|
--10~-----12------12b-----------15-17-|
-----------------------------14-------|
--------------------------------------|
--------------------------------------|
--------------------------------------|

--------------15--------------------------|
--17b-------------15b-15~---15\-----13-15-|
---------------------------------12-------|
------------------------------------------|
------------------------------------------|
------------------------------------------|

--------------------------------------------|
--15b-------16-15b15-13~----13\----10-12-13-|
--------------------------------------------|
--------------------------------------------|
--------------------------------------------|
--------------------------------------------|

-----------------------------------10---------|
--13b-----13r----13-10-13r-13r--------13-10\--|
----------------------------------------------|
----------------------------------------------|
----------------------------------------------|
----------------------------------------------|

--20b---20b--17---------------------------------------17------------------------
----------------20-17----17------------------------17----17-20p17----17---------
----------------------19b---19r-17----19----17-19b----------------19----19r17-19
-----------------------------------19----19-------------------------------------
--------------------------------------------------------------------------------
--------------------------------------------------------------------------------

---------------7------------|---------------5------------|
---------------8------------|---------------5------------|
---------------7------------|---------------5------------|
--7------------9------------|--7------------4------------|
--7------------7------------|--7------------5------------|
--5-------------------------|--5-------------------------|

--8-------------------------|--------------------------------|
--8------------8------------|-----------------9--9--9--9--9--|
--8------------7------------|-----------------7--7--7--7--7--|
--7------------6------------|-----------------9--9--9--9--9--|
--8------------7------------|------------x----7--7--7--7--7--|
----------------------------|------------x----0--0--0--0--0--|

---------------------------|--------------------------------|
--------------3b-----------|--------------------------15-17-|
---------------------------|-----------------------14-------|
---------------------------|--------------------------------|
---------------------------|--------------------------------|
---------------------------|--------------------------------|



------------------------------------------|

--17b--------17b-17-15~-----15\-----13-15-|

--------------------------------12--------|

------------------------------------------|

------------------------------------------|

------------------------------------------|







----------------------------------------|

--15b--------15r--13~-----13\-10-12--13-|

----------------------------------------|

----------------------------------------|

----------------------------------------|

----------------------------------------|







---------------------------------------|--------------------------------------|

--13b-------13r-13-12~---------10--12--|--12b-----13b-----15b-----------15-17-|

-----------------------------x---------|-----------------------------14-------|

---------------------------------------|--------------------------------------|

---------------------------------------|--------------------------------------|

---------------------------------------|--------------------------------------|







----------------------------------------|

--17b----------17-15~-----15\-----13-15-|

-------------------------------12-------|

----------------------------------------|

----------------------------------------|

----------------------------------------|







--------------------------------------------|

--15b-------16-15b-15-13~-----13\--10-12-13-|

--------------------------------------------|

--------------------------------------------|

--------------------------------------------|

--------------------------------------------|







------------------------------------|

--13b-------13r---12~-------10------|

--------------------------------12b-|

------------------------------------|

------------------------------------|

------------------------------------|







--------------------------------------------------------10-12-|

--10~---------10-10----10-10----10-10----10-10----10-13-------|

----------12b-------12b------12b------12b------12b------------|

--------------------------------------------------------------|

--------------------------------------------------------------|

--------------------------------------------------------------|







--12b----12b-12b--12b---12b-------15--|

--------------------------------------|

--------------------------------------|

--------------------------------------|

--------------------------------------|

--------------------------------------|







--------------------------------------------10-12-|

--15r-15~------15r-13-15----13--15b---10-13b------|

-------------------------15-----------------------|

--------------------------------------------------|

--------------------------------------------------|

--------------------------------------------------|







--12r-10-12----10----------------10-----------------------------------|

------------13----13-10----10-13----13r--13-12~---10h12p10-9--10b-10r-|

------------------------12--------------------------------------------|

----------------------------------------------------------------------|

----------------------------------------------------------------------|

----------------------------------------------------------------------|







-----------------------------------|

-----------------------------------|

--9~---9\-5b-----5~--12\-----------|

-----------------------------------|

-----------------------------0--3--|

--------------------------3b-------|







--------------------------------------------------------|

--------------------------------------------------10-13-|

-----------------------------------------10----10-------|

---------------------------10--12--10-12----12----------|

--5b-5~-----8/-12--10--12------12-----------------------|

--------------------------------------------------------|







-----------------------------------------15--------------|

--10-12~---10-12-10-----10--13--15b---15b---15b----15-13-|

--------------------12-----------------------------------|

---------------------------------------------------------|

---------------------------------------------------------|

---------------------------------------------------------|







----------------------10----10-12p10-13-10-12p10----10--------------------|

--15b-15~---15\---13b----13b---------------------13----13-12-10-9-12-10-9-|

--------------------------------------------------------------------------|

--------------------------------------------------------------------------|

--------------------------------------------------------------------------|

--------------------------------------------------------------------------|







-----------------------------------17-----------------------|

--10-------------------------20b------20-17----17-----------|

------9--7h9p7------------------------------19b---19r-17----|

---------------10--9--7/-19------------------------------19-|

------------------------------------------------------------|

------------------------------------------------------------|







--------------------17-20b----20b--20b--20b------20--17h|

--------------17-20-------------------------------------|

--19----17-19-------------------------------------------|

-----19-------------------------------------------------|

--------------------------------------------------------|

--------------------------------------------------------|







--19~---17-19-17-------------------------------------------------17-19-17----17-

-----------------20b20p17h20p17----17----------------------17-20----------20b---

--------------------------------19----19-17----19----17-19----------------------

--------------------------------------------19----19----------------------------

--------------------------------------------------------------------------------

--------------------------------------------------------------------------------







--20b-20b17---------------------------------------------------------------------

------------20-17--------------------------------------------------------17----1

------------------20-19-17----19----17-19--20-19-17-19-19-19~--17\---19b----19b-

---------------------------19----19---------------------------------------------

--------------------------------------------------------------------------------

--------------------------------------------------------------------------------







----------------------------------------------------------22b----22r---22b-|

--17h20p17----17h20p17----17h20p17----17h20p17----17-17--------------------|

-----------19b---------19b---------19b---------19b-------------------------|

---------------------------------------------------------------------------|

---------------------------------------------------------------------------|

---------------------------------------------------------------------------|







--22r-22-22r-22-22r-22-22r-22-22r-22r-22b-22~---19b--|

----------------------------------------------x------|

----------------------------------------------x------|

----------------------------------------------x------|

-----------------------------------------------------|

-----------------------------------------------------|







----19-17-19----17--------------------------------------------------------------

-------------20----20-17----17--------------------------------------------------

-------------------------19----19-17----19--------------------------------------

-------------------------------------19-------17--------------------------------

-------------------------------------------19----19\17-15----17----15-17--17b17-

----------------------------------------------------------17----17--------------







--20r----20-20r----20-20r---20r-20r-20r---|

------------------------------------------|

------------------------------------------|

------------------------------------------|

------------------------------------------|

------------------------------------------|







---20-17-20-20b-20-17~-17\----22b-------22\---------|

----------------------------------------------15-17-|

---------------------------0---------------14-------|

----------------------------------------------------|

----------------------------------------------------|

----------------------------------------------------|







------------------------------------------|

--17b-------17r--17-15~-------15\---13-15-|

---------------------------------12-------|

------------------------------------------|

------------------------------------------|

------------------------------------------|







-----------------------------------------|

--15b-----15r-----13~-----13\-0-10-12-13-|

-----------------------------------------|

-----------------------------------------|

-----------------------------------------|

-----------------------------------------|







---------------------------------------|

--13b-------13r--13-12~------x-10------|

-----------------------------x-----12--|

---------------------------------------|

---------------------------------------|

---------------------------------------|







--------------------------------------------|

--10~------12----13r-13----13\-x------15-17-|

--------9--------------------------14-------|

--------------------------------------------|

--------------------------------------------|

--------------------------------------------|





--------------------------------------|
--17b---------17--15~-----------13-15-|
-----------------------------12-------|
--------------------------------------|
--------------------------------------|
--------------------------------------|

--------15-------------------------------------|
--15b-------15r----15-13--15p13-------10-12-13-|
-----------------------------------------------|
-----------------------------------------------|
-----------------------------------------------|
-----------------------------------------------|

------------------------------------|-------8--5-8-5-----------------------|
--13b-----13r---13--12----9---------|--8b------------8-5-8-5---------------|
-------------------------------9----|------------------------7-5-7-5---7---|
------------------------------------|--------------------------------7---7-|
------------------------------------|--------------------------------------|
------------------------------------|--------------------------------------|

-----------5--------------------------------------------||
-------5-8---8-5----------------------------------------||
---5-7-----------8-7-5---7---5---5-4--------------------||
-----------------------7---7---7-----7-5----------------||
-----------------------------------------7-5-3-2--------||
-------------------------------------------------5~-----||

ProTabs promo.jpg

Onbeperkt en gratis toegang tot alle 25.000
Tabs & Chords en direct meespelen met

Artiest Liedje

...

Gitaarakkoorden gary moore - Still got the blues tab

Dankzij de bladmuziek op deze pagina wordt het een stuk makkelijker om met de gitaar mee te spelen met Still got the blues tab van gary moore De ProTabs van Gitaartabs worden door onze professionele gitaardocenten samengesteld. De tabs en chords zijn door leden zelf geplaatst. Deze undefined van gary moore met Still got the blues tab is voor je geschreven door gitaartabs

Tabs & Chords van gary moore - Still got the blues tab

Bij de ProTabs delen we niet alleen de tablatuur maar ook de speelwijze van Still got the blues tab Met een beetje gitaar ervaring moet je dit gitaarliedje zeker kunnen spelen, maar als het niet lukt zijn we er altijd om je te helpen. Door een gratis account aan te maken krijg je niet alleen toegang tot deze tab ,akkoorden & tabs van Still got the blues tab maar kun je ook onbeperkt meespelen met een van de meer dan 25.000 andere tabs & chords in onze database.

Plaats opmerking

Beoordeel deze song

Rate UsDon’t love itNot greatGoodGreatLove itRate Us

Bedankt voor je beoordeling!