Rock star

Gitaarliedjes, tabs & akkoorden (chords) rock star - hannah montana

Songtype: Tab

arrow&v

Markeer als favoriet

Favoriet

Gemarkeerd als favoriet

Capo:

0

hannah montana

hannah montana

Song
Album
Categorie

rock star

hannah montana

Downloads
Niveau
2
Geplaatst door
slash0r
ProTabs-promo.jpg

Tuning: Drop D (DADGBe)

### INTRO RIFF 1 ### 00:26 ###
e|----------------------------------------|---------------------------------------|
B|--------3---------------2-------2----|--------3-----------------------------|
G|------4---------7-----2-------2----|------4---------7-------1-------1---|
D|----4---------5-----2-------2------|----4---------5-------2-------2-----|
A|--2---------5-----0-------0--------|--2---------5-------2-------2-------|
D|----------5---------------------------|----------5-------2-------2----------|


### INTRO RIFF 2 ### 00:37 ###
e|----------------------------------------------------------------------------------|
B|----------------------------------------------------------------------------------|
G|----------------------------------------------------------------------------------| (2x)
D|--0-------------4-4-------------5-5-----------------7--7-------------------|
A|--0--5--4--5-4-4-5-5-4-4-5-5-5--5-4-4-5-7--7-9-9-7-7-5~--|
D|--0-------------4-4-------------5-5-----------------7--7-------------------|



### VERSE ### 00:50 ###
e|------------------------------------------------------|
B|------------------------------------------------------|
G|--7--------------------------------------------------| (2x)
D|--7-(8x)------4-(8x)----5-(8x)------7-(8x)--|
A|--5-------------4----------5-------------7---------|
D|-----------------4----------5-------------7---------| (pm)


### PRE-CHORUS ### 01:02 ###
e|----------------------|------------------------|-----------------------|-------------------------|
B|----------------------|------------------------|-----------------------|-------------------------|
G|--4------4----4----|--6------6-----6-6--|--7------7------7--|--9-------9---9-9-9--|
D|--4------4----4----|--6------6------6-6--|--7------7------7--|--9------9---9-9-9--|
A|--2--2--2--2--2--|--4--4--4--4--4-4--|--5--5--5--5--5--|--7--7--7---7-7-7--|
D|----------------------|-------------------------|----------------------|-------------------------|

e|----------|---------------------------------|----------|--------------------------|
B|----------|---------------------------------|----------|--------------------------|
G|----------|---------------------------------|----------|--------------------------|
D|--5------|----5-5-5-5-5-5-5---------|--7------|----7-7-7-7-7-7-7--|
A|--5------|----5-5-5-5-5-5-5---------|--7------|----7-7-7-7-7-7-7--|
D|--5------|----5-5-5-5-5-5-5-(pm)-|--7------|----7-7-7-7-7-7-7--|


### CHORUS ### 01:13 ###
e|------------------------------------------------------|------------------------------------------------------------|
B|------------------------------------------------------|------------------------------------------------------------|
G|------------------------------------------------------|------------------------------------------------------------|
D|--0--0-7--7-7-7-10--10-5--5-5-5--(2x)--|--0--0-7--7-7-7-10--10-5--5-5-5--5(7x)-7--|
A|--0--0-7--7-7-7-10--10-5--5-5-5----------|--0--0-7--7-7-7-10--10-5--5-5-5--5------7--|
D|--0--0-7--7-7-7-10--10-5--5-5-5----------|--0--0-7--7-7-7-10--10-5--5-5-5--5------7--|


### INTERLUDE ### 01:26 ###
e|--------------------------------------|------------------------------------|
B|--------------------------------------|------------------------------------|
G|--------------------------------------|------------------------------------|
D|--0--4-2--4--0--5-4--2-4-2--|--0--4-2--4--0--5-4-2~------|
A|--------------------------------------|-------------------------------------|
D|--------------------------------------|-------------------------------------|

### VERSE ### 01:31 ###

### PRE-CHORUS ### 01:43 ###

### CHORUS ### 01:55 ###


### INTRO RIFF 1 ### 02:07 ###
e|---------------------|
B|---------------------|
.. like before + G|--------7-------9--|
D|------5-------7----|
A|----5-------7------|
D|--5-------7--------|


### INTRO RIFF 2 ### 02:22 ###


### SOLO ### 02:34 ### Is vermakkelijkt
e|--------------------------------------------|----------------------------------------------------|
B|--------------------------------------------|------------10--------------------10------------|
G|--9b--9b--9b--9b--9b-9-7-9-7--|--9-7-9b-----9-7-9-7-9-9b----9-7---7--|
D|--------------------------------------------|----------------------------------------------9-----|
A|--------------------------------------------|-----------------------------------------------------|
D|--------------------------------------------|-----------------------------------------------------|

e|--7-5---5--7-5---5--7-5-7-10~--|--15--13-----------------------------------|
B|--------7--------7-----------------------|------------15--13-------------------------|
G|-------------------------------------------|----------------------14-12----------------|
D|-------------------------------------------|-------------------------------14-12-------|
A|-------------------------------------------|----------------------------------------14\--|
D|-------------------------------------------|-----------------------------------------------|


### CHORUS ### 02:46 ###

e|---------------|-------------------|
B|--------------|-------------------|
.. like before + G|---------------|-------------------|
D|--5(8x)-7--|----7-7-7-7-7-7-7--|
A|--5-------7--|----7-7-7-7-7-7-7--|
D|--5-------7--|----7-7-7-7-7-7-7--|


### INTERLUDE ### 03:02 ### (2x !!)


### ENDING ### 3:14 ###

e|------------------|
B|------------------|
G|------------------|
D|------------------|
A|--5~~~--------|
D|------------------|

ProTabs promo.jpg

Onbeperkt en gratis toegang tot alle 25.000
Tabs & Chords en direct meespelen met

Artiest Liedje

...

Gitaarakkoorden hannah montana - rock star

Dankzij de bladmuziek op deze pagina wordt het een stuk makkelijker om met de gitaar mee te spelen met rock star van hannah montana De ProTabs van Gitaartabs worden door onze professionele gitaardocenten samengesteld. De tabs en chords zijn door leden zelf geplaatst. Deze undefined van hannah montana met rock star is voor je geschreven door slash0r

Tabs & Chords van hannah montana - rock star

Bij de ProTabs delen we niet alleen de tablatuur maar ook de speelwijze van rock star Met een beetje gitaar ervaring moet je dit gitaarliedje zeker kunnen spelen, maar als het niet lukt zijn we er altijd om je te helpen. Door een gratis account aan te maken krijg je niet alleen toegang tot deze tab ,akkoorden & tabs van rock star maar kun je ook onbeperkt meespelen met een van de meer dan 25.000 andere tabs & chords in onze database.

Plaats opmerking

Beoordeel deze song

Rate UsDon’t love itNot greatGoodGreatLove itRate Us

Bedankt voor je beoordeling!