Alles wat ik zie

Gitaarliedjes, tabs & akkoorden (chords) Alles wat ik zie - ios

Songtype: Tab

arrow&v

Markeer als favoriet

Favoriet

Gemarkeerd als favoriet

Capo:

0

ios

ios

Song
Album
Categorie

Alles wat ik zie

Downloads
3683
Niveau
2

Geplaatst door
ilse136
ProTabs-promo.jpg

Alles Wat Ik Zie - ios

D x57775
C x35553
G 355433
A 577655
Bm 799777


Riff 1
e------------------------------------------
B---3--3--3--3--3—3---3—3---3--------------
G------------------------------------------
D------------------------------------------
A------------------------------------------
E------------------------------------------

Verse: riff 1
D C
Het is laat en ik krijg je maar niet uit m’n kop.
G D A
Ik moet eruit want ik hou het niet uit, en je laat me niet los.
D C
De stad draait om me heen, de stad beeft, de stad bruist, de stad leeft.
G D A
Ik zoek in de menigte naar d’r gezicht en herken je meteen.

Refrein:
G D
Want alles wat ik zie, zie ik in jou.
G D
En alles wat ik voel, voel ik voor jou.
G D C G
En alles wat ik doe, is zoeken naar de wegen naar je hart.

Verse: riff 1
D C
Je bent mooi, zoals je daar staat in het licht dat speelt met.
G D A
de schaduwen op je gezicht als jij naar me lacht.
D C
En je komt naar me toe en ik kan er nog altijd niet bij.
G D A
Dat ik voor jouw ben wat jij bent voor mij. Het verbaast en bevrijd me.

Refrein:
G D
Want alles wat ik zie, zie ik in jou.
G D
En alles wat ik voel, voel ik voor jou.
G D C G
En alles wat ik doe, doe ik enkel en alleen voor jou.
G D
Want alles wat ik zie, zie ik in jou.
G D
En alles wat ik voel, voel ik voor jou.
G D C G A
En alles wat ik doe, is zoeken naar de wegen naar je hart.
A Bm A
En ik weet dat ik nooit verdwalen zou, als ik val, want ik val alleen voor jou.


Solo: full full full capo 1e fret
e----------------------------------------------------Ù-Ú---Ù-Ú-Ù-----------------------------------------------
B-3-3-----------------------------------------------5-----10-----10-8-7------------------------------2---------
G-2-2--2-p0--------Ù-Ù-Ù----------2-2h4p2--------------------------7----7h9h11p9p7--------2--------------------
D--------------2p0--2-2-2-0---2h4--------------------------------------------------------------2h4-------------
A--------------------------------------------------------------------------------------------------------------
E--------------------------------------------------------------------------------------------------------------
full
e--------------------------------------------------------Ù--Ù---Ù---Ù----Ù------Ù--Ú--Ù------------------------
B-------2--2--2--------------------------10-8-7----10-10-10-10---10-----15-------15-10--8----------------------
G-------2--4--2--------------7—9p7-----------7-----------------------------------------------------7-----------
D-2h4-------------------7h9---------7--------------------------------------------------------------------------
A--------------------------------------------------------------------------------------------------------------
E--------------------------------------------------------------------------------------------------------------
Full---
E--------------------------------------------------------------------------------------------------------------
B------Ù--7--Ú----------------2--------------------------------------------------------------------------------
G--7h9-------9--7-----2h4--2-----------------------------------------------------------------------------------
D--------------------------------------------------------------------------------------------------------------
A--------------------------------------------------------------------------------------------------------------
E--------------------------------------------------------------------------------------------------------------


Refrein:
G D
Want alles wat ik zie, zie ik in jou.
G D
En alles wat ik voel, voel ik voor jou.
G D C G
En alles wat ik doe, doe ik enkel en alleen voor jou.
G D
Want alles wat ik zie, alles wat ik zie.
G D
En alles wat ik voel, en alles wat ik voel.
G D C G
En alles wat ik doe, doe ik enkel en alleen voor jou.


Outro:
D D D A
D D D A
D D D A
D D D A D

Outro: 4x
E--------------------------------------------------------------------------
B---7--7--7--7---7--7--7--7---7--------------------------------------------
G---9--9--7--7---9--7--9--7---7--------------------------------------------
D---7--7--7--7---7--7--7--7---7--------------------------------------------
A--------------------------------------------------------------------------
E--------------------------------------------------------------------------
D D D A


ProTabs promo.jpg

Onbeperkt en gratis toegang tot alle 25.000
Tabs & Chords en direct meespelen met

Artiest Liedje

...

Gitaarakkoorden ios - Alles wat ik zie

Dankzij de bladmuziek op deze pagina wordt het een stuk makkelijker om met de gitaar mee te spelen met Alles wat ik zie van ios De ProTabs van Gitaartabs worden door onze professionele gitaardocenten samengesteld. De tabs en chords zijn door leden zelf geplaatst. Deze undefined van ios met Alles wat ik zie is voor je geschreven door ilse136

Tabs & Chords van ios - Alles wat ik zie

Bij de ProTabs delen we niet alleen de tablatuur maar ook de speelwijze van Alles wat ik zie Met een beetje gitaar ervaring moet je dit gitaarliedje zeker kunnen spelen, maar als het niet lukt zijn we er altijd om je te helpen. Door een gratis account aan te maken krijg je niet alleen toegang tot deze tab ,akkoorden & tabs van Alles wat ik zie maar kun je ook onbeperkt meespelen met een van de meer dan 25.000 andere tabs & chords in onze database.

Plaats opmerking

Verstuur

Beoordeel deze song

Rate UsDon’t love itNot greatGoodGreatLove itRate Us

Bedankt voor je beoordeling!