Heartbeats

Gitaarliedjes, tabs & akkoorden (chords) Heartbeats - jose gonzalez

Songtype: Tab

arrow&v

Markeer als favoriet

Favoriet

Gemarkeerd als favoriet

Capo:

1

jose gonzalez

jose gonzalez

Song
Album
Categorie

Heartbeats

Downloads
1445
Niveau
3
Geplaatst door
[b]lack[a]ngel
ProTabs-promo.jpg

Let op de tuning de capo op de eerste fret!
Tuning gaat zo:

Deze 2 noten moeten steeds hetzelfde klinken (capo ff niet nodig)
e|------------------0--|
B|--------------0---5--|
G|----------0---5------|
D|------0---4----------|
A|--0---5--------------|
E|--7------------------|



Intro:

E |---------------------------|------------------------|---------------------------|---------------------------|
B |---------------------------|------------------------|---------------------------|------------------0--------|
F#|------------------------3--|------------------3-----|------------------------3--|------------------3--------|
D |-----0-------0-----(0)-----|-------0-----(0)--------|-----0-------0-----(0)-----|-------0-----(0)--------0--|
A |--------4h5-----5----------|--4h5-----5----------0--|--------4h5-----5----------|--4h5-----5----------0-----|
D |--0------------------------|------------------------|--0------------------------|---------------------------|


E |-------------------------|----------------------|-----------------------------------------|
B |----------------0--------|----------------------|-----------------------------------------|
F#|----------------0--------|----------------------|------------0----------------------0-----|
D |----------4-----------4--|----------4-----4-----|---------0--------0-------0-----0--------|
A |--2----2-----2-----2-----|--0h2--2-----0--------|------5--------5-----4h5-----5--------0--|
D |-------------------------|-------------------4--|--5--------------------------------------|


E |-------------------------|------------------------|-------------------------|------------------------|
B |-------------------------|------------------------|-------------------------|------------------------|
F#|----------------------3--|------------------3-----|----------------------3--|------------------3-----|
D |-----------0-----(0)-----|-------0-----(0)--------|-----------0-----(0)-----|-------0-----(0)--------|
A |------4h5-----5----------|--4h5-----5----------0--|------4h5-----5----------|--4h5-----5----------0--|
D |--0----------------------|------------------------|--0----------------------|------------------------|


E |-------------------------|----------------------|-----------------------------------------|
B |----------------0--------|----------------------|-----------------------------------------|
F#|----------------0--------|----------------------|------------0----------------------0-----|
D |----------4-----------4--|----------4-----4-----|---------0--------0-------0-----0--------|
A |--2----2-----2-----2-----|--0h2--2-----0--------|------5--------5-----4h5-----5--------0--|
D |-------------------------|-------------------4--|--5---------------------------------------

Couplet

E |----------------------|------------------------|----------------------|-----------------------|
B |----------------------|------------------------|----------------------|-----------------------|
F#|-------------3--------|------------------3-----|-------------3--------|-----------------3-----|
D |----------0--------0--|-------0-----(0)--------|----------0--------0--|-------0---------------|
A |-----4h5--------5-----|--4h5-----5----------0--|-----4h5--------5-----|--4h5-----5---0-----0--|
D |--0-------------------|------------------------|--0-------------------|-----------------------|


E |-------------------------|----------------------|-----------------------------------------|
B |----------------0--------|----------------------|-----------------------------------------|
F#|----------------0--------|----------------------|------------0----------------------0-----|
D |----------4-----------4--|----------4-----4-----|---------0--------0-------0-----0--------|
A |--2----2-----2-----2-----|--0h2--2-----0--------|------5--------5-----4h5-----5--------0--|
D |-------------------------|-------------------4--|--5--------------------------------------|


E |----------------------|------------------------|----------------------|-----------------------|
B |----------------------|------------------------|----------------------|-----------------0-----|
F#|-------------3--------|------------------3-----|-------------3--------|-----------------3-----|
D |----------0--------0--|-------0-----(0)--------|----------0--------0--|-------0---------------|
A |-----4h5--------5-----|--4h5-----5----------0--|-----4h5--------5-----|--4h5-----5---0-----0--|
D |--0-------------------|------------------------|--0-------------------|-----------------------|


E |-------------------------|----------------------|--------------------------------------------|----------------------|
B |----------------0--------|----------------------|--------------------------------------------|----------------------|
F#|----------------0--------|----------------------|------------0----------------------0--------|----------------0-----|
D |----------4-----------4--|----------4-----4-----|---------0--------0-------0-----0--------0--|-------0-----0--------|
A |--2----2-----2-----2-----|--0h2--2-----0--------|------5--------5-----4h5-----5--------5-----|--4h5-----5--------0--|
D |-------------------------|-------------------4--|--5-----------------------------------------|----------------------|


Refrein:

E |----------------------|------------------------|-------------------------|-----------------------|
B |----------------------|------------------------|-------------------------|-----------------0-----|
F#|-------------3--------|------------------3-----|----------------------3--|-----------------3-----|
D |----------0--------0--|-------0-----(0)--------|-----------0-----(0)-----|-------0---------------|
A |-----4h5--------5-----|--4h5-----5----------0--|------4h5-----5----------|--4h5-----5---0-----0--|
D |--0-------------------|------------------------|--0----------------------|-----------------------|


E |-------------------------|----------------------|-----------------------------------------|
B |----------------0--------|----------------------|-----------------------------------------|
F#|----------------0--------|----------------------|------------0----------------------0-----|
D |----------4-----------4--|----------4-----4-----|---------0--------0-------0-----0--------|
A |--2----2-----2-----2-----|--0h2--2-----0--------|------5--------5-----4h5-----5--------0--|
D |-------------------------|-------------------4--|--5--------------------------------------|




E |-------------------------|------------------------|-------------------------|------------------------|
B |-------------------------|------------------------|-------------------------|------------------------|
F#|----------------------3--|------------------3-----|----------------------3--|------------------3-----|
D |-----------0-----(0)-----|-------0-----(0)--------|-----------0-----(0)-----|-------0-----(0)--------|
A |------4h5-----5----------|--4h5-----5----------0--|------4h5-----5----------|--4h5-----5----------0--|
D |--0----------------------|------------------------|--0----------------------|------------------------|


Couplet

E |----------------------|----------------------|----------------------|--------------------------|
B |----------------------|----------------------|----------------------|--------------------------|
F#|-------------3--------|----------------3-----|-------------3--------|-----------------3--------|
D |----------0--------0--|-------0--------------|----------0--------0--|-------0---------------0--|
A |-----4h5--------5-----|--4h5-----5--0-----0--|-----4h5--------5-----|--4h5-----5---0-----0-----|
D |--0-------------------|----------------------|--0-------------------|--------------------------|


E |-------------------------|----------------------|-----------------------------------------|
B |----------------0--------|----------------------|-----------------------------------------|
F#|----------------0--------|----------------------|------------0----------------------0-----|
D |----------4-----------4--|----------4-----4-----|---------0--------0-------0-----0--------|
A |--2----2-----2-----2-----|--0h2--2-----0--------|------5--------5-----4h5-----5--------0--|
D |-------------------------|-------------------4--|--5--------------------------------------|


E |----------------------|---------------------------|----------------------|--------------------------|
B |----------------------|---------------------------|----------------------|--------------------------|
F#|-------------3--------|------------------3--------|-------------3--------|-----------------3--------|
D |----------0--------0--|-------0-----(0)--------0--|----------0--------0--|-------0---------------0--|
A |-----4h5--------5-----|--4h5-----5----------0-----|-----4h5--------5-----|--4h5-----5---0-----0-----|
D |--0-------------------|---------------------------|--0-------------------|--------------------------|


E |-------------------------|----------------------|-----------------------------------------|----------------------------------------|
B |----------------0--------|----------------------|-----------------------------------------|----------------------------------------|
F#|----------------0--------|----------------------|------------0----------------------0-----|-----------0----------------------0-----|
D |----------4-----------4--|----------4-----4-----|---------0--------0-------0-----0--------|--0-----0--------0-------0-----0--------|
A |--2----2-----2-----2-----|--0h2--2-----0--------|------5--------5-----4h5-----5--------5--|-----5--------5-----4h5-----5--------0--|
D |-------------------------|-------------------4--|--5--------------------------------------|----------------------------------------|


Refrein

E |----------------------|------------------------|-----------------------|-----------------------|
B |----------------------|------------------------|-----------------------|-----------------------|
F#|-------------3--------|------------------3-----|--------------3--------|-----------------3-----|
D |----------0--------0--|-------0-----(0)--------|-----------0--------0--|-------0---------------|
A |-----4h5--------5-----|--4h5-----5----------0--|------4h5--------5-----|--4h5-----5---0-----0--|
D |--0-------------------|------------------------|--0--------------------|-----------------------|


E |-------------------------|----------------------|-----------------------------------------|
B |----------------0--------|----------------------|-----------------------------------------|
F#|----------------0--------|----------------------|------------0----------------------0-----|
D |----------4-----------4--|----------4-----4-----|---------0--------0-------0-----0--------|
A |--2----2-----2-----2-----|--0h2--2-----0--------|------5--------5-----4h5-----5--------0--|
D |-------------------------|-------------------4--|--5--------------------------------------|

E |----------------------|------------------------|-------------------------|-----------------------|
B |----------------------|------------------------|-------------------------|-----------------------|
F#|-------------3--------|------------------3-----|----------------------3--|-----------------3-----|
D |----------0--------0--|-------0-----(0)--------|-----------0-----(0)-----|-------0---------------|
A |-----4h5--------5-----|--4h5-----5----------0--|------4h5-----5----------|--4h5-----5---0-----0--|
D |--0-------------------|------------------------|--0----------------------|-----------------------|


E |-------------------------|----------------------|--------------------------------------------|
B |----------------0--------|----------------------|--------------------------------------------|
F#|----------------0--------|----------------------|------------0----------------------0--------|
D |----------4-----------4--|----------4-----4-----|---------0--------0-------0-----0--------0--|
A |--2----2-----2-----2-----|--0h2--2-----0--------|------5--------5-----4h5-----5--------5-----|
D |-------------------------|-------------------4--|--5-----------------------------------------|


Bridge

E |----------------------------------|----------------------------------|
B |----------------------------------|----------------------------------|
F#|----------0----------------0------|----------0----------------0------|
D |--------0-----0----------0-----0--|--------0-----0----------0-----0--|
A |------7-----7----------7-----7----|------7-----7----------7-----7----|
D |--7----------------7--------------|--7----------------7--------------|


E |----------------------------------|----------------------------------|
B |----------------------------------|----------------------------------|
F#|----------0----------------0------|----------0----------------0------|
D |--------0-----0----------0-----0--|--------0-----0----------0-----0--|
A |------5-----5----------5-----5----|------5-----5----------5-----5----|
D |--5----------------5--------------|--5----------------5--------------|


E |----------------------------------|----------------------------------|
B |----------------------------------|----------------------------------|
F#|----------0----------------0------|----------0----------------0------|
D |--------0-----0----------7-----0--|--------0-----0----------0-----0--|
A |------7-----7----------7-----7----|------7-----7----------7-----7----|
D |--7----------------7--------------|--7----------------7--------------|


E |----------------------------------|----------------------------------|
B |----------------------------------|----------------------------------|
F#|----------0----------------0------|----------0----------------0------|
D |--------0-----0----------0-----0--|--------0-----0----------0-----0--|
A |------5-----5----------5-----5----|------5-----5----------5-----0----|
D |--5----------------5--------------|--5----------------5--------------|


E |-------------------------0------|---------------------------|
B |----------0--------------0------|----------0-----------0----|
F#|--------0-----0--------0-----0--|--------0-----0---3-0------|
D |------4-----4--------4-----4----|------4-----4--------------|
A |--2--------------2--------------|--2--------------2-2-2--0--|
D |--------------------------------|---------------------------|


REfrein:

E |-------------------------|------------------------|--------------------------|--------------------------|
B |-------------------------|------------------------|--------------------------|--------------------------|
F#|----------------3--------|------------------3-----|-----------------3--------|-----------------3--------|
D |-----0-------0--------0--|-------0-----(0)--------|-----0--------0--------0--|-------0---------------0--|
A |--------4h5--------5-----|--4h5-----5----------0--|---------4h5--------5-----|--4h5-----5---0-----0-----|
D |--0----------------------|------------------------|--0-----------------------|--------------------------|


E |-------------------------|----------------------|-----------------------------------------|
B |----------------0--------|----------------------|-----------------------------------------|
F#|----------------0--------|----------------------|------------0----------------------0-----|
D |----------4-----------4--|----------4-----4-----|---------0--------0-------0-----0--------|
A |--2----2-----2-----2-----|--0h2--2-----0--------|------5--------5-----4h5-----5--------0--|
D |-------------------------|-------------------4--|--5--------------------------------------|

E |----------------------|------------------------|---------------------------|--------------------------|
B |----------------------|------------------------|---------------------------|-----------------0--------|
F#|-------------3--------|------------------3-----|------------------------3--|-----------------3--------|
D |----------0--------0--|-------0-----(0)--------|-----0-------0-----(0)-----|-------0---------------0--|
A |-----4h5--------5-----|--4h5-----5----------0--|--------4h5-----5----------|--4h5-----5---0-----0-----|
D |--0-------------------|------------------------|--0------------------------|--------------------------|


E |-------------------------|----------------------|-----------------------------------------|-----|
B |----------------0--------|----------------------|-----------------------------------------|-----|
F#|----------------0--------|----------------------|------------0----------------------0-----|--3--|
D |----------4-----------4--|----------4-----4-----|---------0--------0-------0-----0--------|--0--|
A |--2----2-----2-----2-----|--0h2--2-----0--------|------5--------5-----4h5-----5--------0--|--0--|
D |-------------------------|-------------------4--|--5--------------------------------------|-----|

ProTabs promo.jpg

Onbeperkt en gratis toegang tot alle 25.000
Tabs & Chords en direct meespelen met

Artiest Liedje

...

Gitaarakkoorden jose gonzalez - Heartbeats

Dankzij de bladmuziek op deze pagina wordt het een stuk makkelijker om met de gitaar mee te spelen met Heartbeats van jose gonzalez De ProTabs van Gitaartabs worden door onze professionele gitaardocenten samengesteld. De tabs en chords zijn door leden zelf geplaatst. Deze undefined van jose gonzalez met Heartbeats is voor je geschreven door [b]lack[a]ngel

Tabs & Chords van jose gonzalez - Heartbeats

Bij de ProTabs delen we niet alleen de tablatuur maar ook de speelwijze van Heartbeats Met een beetje gitaar ervaring moet je dit gitaarliedje zeker kunnen spelen, maar als het niet lukt zijn we er altijd om je te helpen. Door een gratis account aan te maken krijg je niet alleen toegang tot deze tab ,akkoorden & tabs van Heartbeats maar kun je ook onbeperkt meespelen met een van de meer dan 25.000 andere tabs & chords in onze database.

Plaats opmerking

Beoordeel deze song

Rate UsDon’t love itNot greatGoodGreatLove itRate Us

Bedankt voor je beoordeling!