I'm a believer

Gitaarliedjes, tabs & akkoorden (chords) I'm a believer - monkees

Songtype: Tab

arrow&v

Markeer als favoriet

Favoriet

Gemarkeerd als favoriet

Capo:

0

monkees

monkees

Song
Album
Categorie

I'm a believer

Downloads
2067
Niveau
2

Geplaatst door
gitaartabs
ProTabs-promo.jpg

Chords:
G: 3 2 0 0 0 3
D: X X 0 2 3 2
C: X 3 2 0 1 0
F: 1 3 3 2 1 1

Intro:
Guitar 1
e|------1---1---0---0--------------------------------------------------------|
B|------3---3---1---1--------------------------------------------------------|
G|--0---0---0---0---0--------------------------------------------------------|
D|-----------------------------3---------3--------3--------------------------|
A|----------------------3-h--5-----3-h-5-----3-h--5--------------------------|
E|---------------------------------------------------------------------------|


Verse 1:
G D G
I thought love was only true in fairy tales

G D G
Meant for someone else but not for me.

C G
Love was out to get me

C G
Thats the way it seemed.

C G D Stop.
Disappointment haunted all my dreams.



G C G
Then I saw her face,

C G C G
now Im a believer

C G C G
Not a trace

C G C G
of doubt in my mind.

C G(one stroke then mute) C(one stroke)
Im in love, ooh

G(one stroke) F(one stroke) (Riff below)
Im a believer! I couldnt leave her if I tried.

e|--------------------------------------|
B|-----------3---------3-------3~-------|
G|--3-h--5-----3-h-5-----3-h--5---------|
D|--------------------------------------| X2
Play this Riff exactly the same as the end of the beggining riff except repeat twice (as indicated).

Verse 2:
G D G
I thought love was more or less a given thing,

G D G
Seems the more I gave the less I got.

C G
Whats the use in tryin?

C G
All you get is pain.

C G D Stop.
When I needed sunshine I got rain.

Chorus:

Solo:
The solo for this song is very simple even for a begginer and sounds great when played
the song's chords.
G D G G
e|-------------------------------------------------------|--------------------|
B|-------------------------------------------------------|--------------------|
G|-------------------------------------------------------|--------------------|
D|---5--5~--3~--------------3--4--5--5--3--------3--4--5-|-5--3--------3--4---|
A|-------------5--5--5~--5-----------------5--5----------|-------5--5---------|
E|-------------------------------------------------------|--------------------| X2

on the second time round the end part is played;

e|---------------------------------------------------------------------------|
B|---------------------------------------------------------------------------|
G|-V The gap here is smaller-------------------------------------------------|
D|--5-3----------------------------------------------------------------------|
A|------5--------------------------------------------------------------------|
E|---------------------------------------------------------------------------|

Verse 3
C G
Love was out to get me

C G
Thats the way it seemed.

C G D Stop.
Disappointment haunted all my dreams.

Chorus:

Ending:
G C G
Yes I saw her face,

C G C G
now Im a believer

C G C G
Not a trace

C G C G
of doubt in my mind.

C G C G
Said Im a believer

C G C G
I'm a believer

C G C G
Said Im a believer (Im a believer)

C G C G
Said Im a believer (Im a believer)

ProTabs promo.jpg

Onbeperkt en gratis toegang tot alle 25.000
Tabs & Chords en direct meespelen met

Artiest Liedje

...

Gitaarakkoorden monkees - I'm a believer

Dankzij de bladmuziek op deze pagina wordt het een stuk makkelijker om met de gitaar mee te spelen met I'm a believer van monkees De ProTabs van Gitaartabs worden door onze professionele gitaardocenten samengesteld. De tabs en chords zijn door leden zelf geplaatst. Deze undefined van monkees met I'm a believer is voor je geschreven door gitaartabs

Tabs & Chords van monkees - I'm a believer

Bij de ProTabs delen we niet alleen de tablatuur maar ook de speelwijze van I'm a believer Met een beetje gitaar ervaring moet je dit gitaarliedje zeker kunnen spelen, maar als het niet lukt zijn we er altijd om je te helpen. Door een gratis account aan te maken krijg je niet alleen toegang tot deze tab ,akkoorden & tabs van I'm a believer maar kun je ook onbeperkt meespelen met een van de meer dan 25.000 andere tabs & chords in onze database.

Plaats opmerking

Verstuur

Beoordeel deze song

Rate UsDon’t love itNot greatGoodGreatLove itRate Us

Bedankt voor je beoordeling!