End of amnesia

Gitaarliedjes, tabs & akkoorden (chords) end of amnesia - m.ward

Songtype: Tab

arrow&v

Markeer als favoriet

Favoriet

Gemarkeerd als favoriet

Capo:

0

m.ward

m.ward

Song
Album
Categorie

end of amnesia

Downloads
85
Niveau
1
end of amnesia

Geplaatst door
martin
ProTabs-promo.jpg

M.ward-End of amnesia made by Martin – drop D
E---------------------------------------------------------------------------------------------------------------
B-------------------------------------------------------------------------------5---------- -------5/7--------
G---------------------------------------------------------------------------------------------------------------
D-------0------0--------0-----0--------0-----------0------0--------0-------------0------0-----------0-----
A----0-------0--------0-----0--------0----------0-------0------0--------------0-------0-----------0------
E--0--------0-------0------0-------0---------0--------0-------0-------------0-------0---------0-----------

E:--------------------------------------------------------------------------------------------------------------
B:—--- ----- 7/8--- --- ---7-----------------8-----------------8/10------ ---------10/12----- ----------
G:------------------------------------------------ ------------------------------------------------------- ------
D:------0----------0----0--------0------0---------0----- -0-- -----0--------0-----------0-------0---------
A:----0---------0-----0--------0------0---------0------0---------0--------0-----------0-------0-----------
E:--0---------0------0-------0------0---------0------0---------0--------0-----------0-------0--------------

E:---------------------5--------5---------7----------5--------------------------------------------------------
B:--10-------------------7--------7---------8----------7------5H7------7-----8----7------5-----------5--
G:---------------------------------------------------------------------7-----7-----7-----7-------6---------6-
D:------0-----0-------------0---------0---------0---------0-----------0-----0-----0-----0-----------0-----
A:----0-----0----------------------------------------------------------------------------------------0--------
E:--0-----0----------------------------------------------------------------------------------------------------


E:----------------------------------------0-----0H2---0H2--0-----------------------------------------------
B:--5H7------5H7--5------1------------1---------------------0----3-----3------3-----3------------- 3---
G:-------7--------------6-/-----0-----------0---------------------------4------4------4-----4--0---3-----4-
D:--------0-----------------------0---------------------------------------0------0------0-------------------0
A:--------------------------------------------------------------------------------------------------------------
E: --------------------------------------------------------------------------------------------------------------

E:----------------------------------------------------0-------------7---4--0-----3--9--7---------------------
B:----3H5----3H5--3--------------------0H3-------3----------------------2-----------0-------------------
G:-----------------------4/3--2----2H4---------------4------------------------------------0----------------
D:----------------------------- 0-----------------------------------------------------------------0------------
A:--------------------------------------------------------------------------------------------------0-----------
E:----------------------------------------------------------------------------------------------------0---------

E:----5--2-----------7---5---------------------------------------7--4-0----3--9--7-------------------------
B:----------2-----3---------0-----------7----0-----3/--7----------------2----------0-----------------------
G:-------------2---------------0-----------7-----2--------7----------------------------0---------------------
D:--------------------------------0--------------------------------------------------------0-------------------
A:----------------------------------0---------------------------------------------------------0----------------
E:----------------------------------------------------------------------------------------------0---------------

E:---5--2----------7--5-----------------------------7-4-0----3--9--7--------------5--2---------7--5------
B:---------2----3--------0--------7---0---3-7-------------2-----------0----------------2----3-------0----
G:-----------2--------------0--------7---2-----7--------------------------0----------------2------------0-
D:-----------------------------0----------------------------------------------0------------------------------0
A:--------------------------------0----------------------------------------------0-----------------------------
E:---------------------------------------------------------------------------------0----------------------------
E:--------------------------------------------------------------------------------------------------------------
B:----7---0----3--7-------------------------------------------------------------------------------------------
G:-----7----2-------7------------------------------------------------------------------------------------------
D:--------------------------------------------------------------------------------------------------------------
A:--------------------------------------------------------------------------------------------------------------
E:--------------------------------------------------------------------------------------------------------------


H= HAMMER ON
/=SLIDE

ProTabs promo.jpg

Onbeperkt en gratis toegang tot alle 25.000
Tabs & Chords en direct meespelen met

Artiest Liedje

...

Gitaarakkoorden m.ward - end of amnesia

Dankzij de bladmuziek op deze pagina wordt het een stuk makkelijker om met de gitaar mee te spelen met end of amnesia van m.ward De ProTabs van Gitaartabs worden door onze professionele gitaardocenten samengesteld. De tabs en chords zijn door leden zelf geplaatst. Deze undefined van m.ward met end of amnesia is voor je geschreven door martin

Tabs & Chords van m.ward - end of amnesia

Bij de ProTabs delen we niet alleen de tablatuur maar ook de speelwijze van end of amnesia Met een beetje gitaar ervaring moet je dit gitaarliedje zeker kunnen spelen, maar als het niet lukt zijn we er altijd om je te helpen. Door een gratis account aan te maken krijg je niet alleen toegang tot deze tab ,akkoorden & tabs van end of amnesia maar kun je ook onbeperkt meespelen met een van de meer dan 25.000 andere tabs & chords in onze database.

Plaats opmerking

Verstuur

Beoordeel deze song

Rate UsDon’t love itNot greatGoodGreatLove itRate Us

Bedankt voor je beoordeling!