Oh Susanna

Gitaarliedjes, tabs & akkoorden (chords) Oh Susanna - oh susanna

Songtype: Tab

arrow&v

Markeer als favoriet

Favoriet

Gemarkeerd als favoriet

Capo:

0

oh susanna

oh susanna

Song
Album
Categorie

Oh Susanna

Downloads
90
Niveau
0
Geplaatst door
ProTabs-promo.jpg

e|-------------0---------------------|
B|------0-3-3----3-0------0-0--------|
G|--0-2--------------0--2-----2-0-2--|
D|-----------------------------------|
A|-----------------------------------|
E|-----------------------------------|

e|-------------0---------------------|
B|------0-3-3----3-0------0-0--------|
G|--0-2--------------0--2-----2-2-0--|
D|-----------------------------------|
A|-----------------------------------|
E|-----------------------------------|

e|--------0-0--0-----------|
B|--1--1---------3-3-0-----|
G|---------------------0-2-|
D|-------------------------|
A|-------------------------|
E|-------------------------|

e|-------------0---------------------|
B|------0-3-3----3-0------0-0--------|
G|--0-2--------------0--2-----2-2-0--|
D|-----------------------------------|
A|-----------------------------------|
E|-----------------------------------|

ProTabs promo.jpg

Onbeperkt en gratis toegang tot alle 25.000
Tabs & Chords en direct meespelen met

Artiest Liedje

...

Gitaarakkoorden oh susanna - Oh Susanna

Dankzij de bladmuziek op deze pagina wordt het een stuk makkelijker om met de gitaar mee te spelen met Oh Susanna van oh susanna De ProTabs van Gitaartabs worden door onze professionele gitaardocenten samengesteld. De tabs en chords zijn door leden zelf geplaatst. Deze undefined van oh susanna met Oh Susanna is voor je geschreven door undefined

Tabs & Chords van oh susanna - Oh Susanna

Bij de ProTabs delen we niet alleen de tablatuur maar ook de speelwijze van Oh Susanna Met een beetje gitaar ervaring moet je dit gitaarliedje zeker kunnen spelen, maar als het niet lukt zijn we er altijd om je te helpen. Door een gratis account aan te maken krijg je niet alleen toegang tot deze tab ,akkoorden & tabs van Oh Susanna maar kun je ook onbeperkt meespelen met een van de meer dan 25.000 andere tabs & chords in onze database.

Plaats opmerking

Beoordeel deze song

Rate UsDon’t love itNot greatGoodGreatLove itRate Us

Bedankt voor je beoordeling!