Lang zal ze leven v2

Gitaarliedjes, tabs & akkoorden (chords) lang zal ze leven v2 - undefined

Songtype: Tab

arrow&v

Markeer als favoriet

Favoriet

Gemarkeerd als favoriet

Capo:

0

Song
Album
Categorie

lang zal ze leven v2

Downloads
260
Niveau
1

Geplaatst door
laura jwt
ProTabs-promo.jpg

E ----------------------------------------------------------------------------------------------------------------------------
A----------------------------------------------------------------------------------------------------------------------------
D----------------------0---------------------------------------------------------------------------------------------------
G---0---0---0---0---------------------------0-----------------------------------2---2---2----------------------------
B---------------------------0---0---0---0--------3---3---3--------3---1---0------------------3---1---0--2---3------
e------------------------------------------------------------0--------------------------------------------------------------

E ----------------------------------------------------------------------------------------------------------------------------
A----------------------------------------------------------------------------------------------------------------------------
D--------------------------------------------------------------------------------------------------------------------------
G-----------------2---0-----------------------------------------------------------------------------------------------------
B---3---1---0--------------------------------------------------------------------------------------------------------------
e----------------------------------------------------------------------------------------------------------------------------

ProTabs promo.jpg

Onbeperkt en gratis toegang tot alle 25.000
Tabs & Chords en direct meespelen met

Artiest Liedje

...

Gitaarakkoorden undefined - lang zal ze leven v2

Dankzij de bladmuziek op deze pagina wordt het een stuk makkelijker om met de gitaar mee te spelen met lang zal ze leven v2 van undefined De ProTabs van Gitaartabs worden door onze professionele gitaardocenten samengesteld. De tabs en chords zijn door leden zelf geplaatst. Deze undefined van undefined met lang zal ze leven v2 is voor je geschreven door laura jwt

Tabs & Chords van undefined - lang zal ze leven v2

Bij de ProTabs delen we niet alleen de tablatuur maar ook de speelwijze van lang zal ze leven v2 Met een beetje gitaar ervaring moet je dit gitaarliedje zeker kunnen spelen, maar als het niet lukt zijn we er altijd om je te helpen. Door een gratis account aan te maken krijg je niet alleen toegang tot deze tab ,akkoorden & tabs van lang zal ze leven v2 maar kun je ook onbeperkt meespelen met een van de meer dan 25.000 andere tabs & chords in onze database.

Plaats opmerking

Verstuur

Beoordeel deze song

Rate UsDon’t love itNot greatGoodGreatLove itRate Us

Bedankt voor je beoordeling!