I could have lied

Gitaarliedjes, tabs & akkoorden (chords) I could have lied - red hot chili peppers

Songtype: Tab

arrow&v

Markeer als favoriet

Favoriet

Gemarkeerd als favoriet

Capo:

0

red hot chili peppers

red hot chili peppers

Song
Album
Categorie

I could have lied

Downloads
955
Niveau
2
bssm

Geplaatst door
gitaartabs
ProTabs-promo.jpg

Strophe

E---------------------------------------------------------
H---------------------------------------------------------
G---------------------------------------------------------
D------0----4--0--4--0-4-----0--4--7--5--4--0-------
A-2-------------------------------------------------------
E--------------------------------------------------------3

Pre-Chorus

E-0-------0------------0--0--0------------0---------------0--------0--0--0
H-4-------4------------7--7--7------------2---------------2--------0--0--0
G-4-------4------------7--7--7------------2---------------2--------4--4--4
D-4-------4------------7--7--7------------2---------------2--------5--5--5
A-2-------2------------5--5--5------------0---------------0--------0--0--0
E-------------------------------------------------------------------------------

Chorus

E-------------------------------------------------------------------------
H-8------8----------12-12-12-----------7------7----------5--5--5--5
G-9------9----------12-12-12-----------7------7----------5--5--5--5
D-9------9----------12-12-12-----------7------7----------5--5--5--5
A-7------7----------10-10-10-----------5------5----------3--3--3--3
E-------------------------------------------------------------------------

Guitar-Solo

E---------------------------------------------------------------------------------------------------------------
H---------------------------------------------------------------------------------7--7---7----------7------7-
G---------------------------------------------------------------------------7-------------------9-------9-----
D---------------------------------7----11----9------------------------9--------------------------------------
A---------------5------------9-----------------------10----10-10--------------------------------------------
E-7-------------------------------------------------------------------------------------------------------------

E-------------------------------------------------------------------------------------------7-----------------------7-------
H---7------10---8---7--------------------------------7-------7----------7--------------------7-----------10----------10
G-9------------------------7--7-9-7-9-7-------7-9------9--------9---------9---------------------------------------------
D-----------------------------------------------------------------------------------------------------------------------------
A-----------------------------------------------------------------------------------------------------------------------------
E-----------------------------------------------------------------------------------------------------------------------------

E-----------------------------------------------------------------------------------------------------------------
H-10---7---------------------------------8--7----7~8~7------------------------7-----------------------------
G------------9---7-------------------------------------------7--------------7--------7-------------------------
D------------------------9---9--9----------------------------------9--9-------------------9------9---7----9--
A-----------------------------------------------------------------------------------------------------------------
E-----------------------------------------------------------------------------------------------------------------

E---------------------------------------------------------------------------17-15-14---------------------------------
H----------------------------------------------------------15-19-----------------------15----------------------------
G-----------------------------------------------14-16------------------------------------------14---9-7-9-7-9(11)
D-------------------------------------14-16---------------------------------------------------------------------------
A-7~9----9~10--------10~14----------------------------------------------------------------------------------------
E------------------------------------------------------------------------------------------------------------------------

D--9---7---------7/9/5-----------4/5/4
Outro

E
H-12---------12
G-14~16----14~16---
D
A
E

ProTabs promo.jpg

Onbeperkt en gratis toegang tot alle 25.000
Tabs & Chords en direct meespelen met

Artiest Liedje

...

Gitaarakkoorden red hot chili peppers - I could have lied

Dankzij de bladmuziek op deze pagina wordt het een stuk makkelijker om met de gitaar mee te spelen met I could have lied van red hot chili peppers De ProTabs van Gitaartabs worden door onze professionele gitaardocenten samengesteld. De tabs en chords zijn door leden zelf geplaatst. Deze undefined van red hot chili peppers met I could have lied is voor je geschreven door gitaartabs

Tabs & Chords van red hot chili peppers - I could have lied

Bij de ProTabs delen we niet alleen de tablatuur maar ook de speelwijze van I could have lied Met een beetje gitaar ervaring moet je dit gitaarliedje zeker kunnen spelen, maar als het niet lukt zijn we er altijd om je te helpen. Door een gratis account aan te maken krijg je niet alleen toegang tot deze tab ,akkoorden & tabs van I could have lied maar kun je ook onbeperkt meespelen met een van de meer dan 25.000 andere tabs & chords in onze database.

Plaats opmerking

Verstuur

Beoordeel deze song

Rate UsDon’t love itNot greatGoodGreatLove itRate Us

Bedankt voor je beoordeling!