Mellowship slinky in b major

Gitaarliedjes, tabs & akkoorden (chords) Mellowship slinky in b major - red hot chili peppers

Songtype: Tab

arrow&v

Markeer als favoriet

Favoriet

Gemarkeerd als favoriet

Capo:

0

red hot chili peppers

red hot chili peppers

Song
Album
Categorie

Mellowship slinky in b major

blood sugar sex magik

Downloads
894
Niveau
2
Geplaatst door
kaham
ProTabs-promo.jpg

Nummer: Mellowship Slinky in B Major
Artiest: Red Hot Chili Peppers, The
Album: Blood Sugar Sex Magik
Tab: BasG [Kaham]
Tuning: Standard EADGBe

Lekker funky nummer. Volledige tab staat hieronder.
De meeste stukken lijken op elkaar en zijn dus niet al te lastig. Ik heb het nummer volledig uitgeschreven omdat er hier en daar kleine variaties te vinden zijn.
Uitleg van symbolen staat zoals gewoonlijk onderaan.

INTRO

E E E E E E E E S S S S S S S S E E S E.
E||--------------------------|-------------------------------|
B||--------------------------|-------------------------------|
G||--------------------------|-------------------------------|
D||--------------------------|-------------------------------|
A||--4-----3-----2-----5--6--|--7-----------5---7--7--5-7S---|
E||--------------------------|----0---0---7---7--------------|

E E E E E E E E S S S S S S S S S S S S S S S S
|--------------------------|----------------------------------|
|--------------------------|----------------------------------|
|--------------------------|----------------------------------|
|--------------------------|----------------------------------|
|--4-----3-----2-----5--6--|--7-----------5---7-----------5---|
|--------------------------|----0---0---7---7---0---0---7---7-|

E E E E E E E E S S S S S S S S E E S E.
|--------------------------|-------------------------------|
|--------------------------|-------------------------------|
|--------------------------|-------------------------------|
|--------------------------|-------------------------------|
|--4-----3-----2-----5--6--|--7-----------5---7--7--5-7S---|
|--------------------------|----0---0---7---7--------------|

E E E E E E E E S S S S S S S S S S E Q
|--------------------------|------------------------------|
|--------------------------|------------------------------|
|--------------------------|------------------------------|
|--------------------------|------------------------------|
|--4-----3-----2-----5--6--|--7-----------5---7-----------|
|--------------------------|----0---0---7---7---0---------|

-----------------------------------------------------------------------

COUPLET 1

E E E E E E E E E E H.
|-----7-----------------------|----------------------|
|--------10--9--10--9--7------|----------------------|
|-------------------------7b--|----------------------|
|-----------------------------|-----9----------------|
|-----------------------------|----------------------|
|-----------------------------|----------------------|

E E E E E E E E E E. E. E Q.
|-----7-----------------------|------------------------|
|--------10--9--10--9--7------|------------------------|
|-------------------------7b--|------------------------|
|-----------------------------|-----9---8---7----------|
|-----------------------------|------------------------|
|-----------------------------|------------------------|

E E E E E E E E E E E E E E Q
|-----7-----------------------|----------------------------|
|--------10--9--10--9--7------|----------------------------|
|-------------------------7b--|----------------------------|
|-----------------------------|-----9~---------------------|
|-----------------------------|------------5b--------------|
|-----------------------------|-------------------5~-------|

E E E E E E E E E E. E. E Q.
|-----7-----------------------|------------------------|
|--------10--9--10--9--7------|------------------------|
|-------------------------7b--|------------------------|
|-----------------------------|-----9---8---7----------|
|-----------------------------|------------------------|
|-----------------------------|------------------------|

E E E E E E E E E E E E E E Q
-----7-----------------------|--------------------------|
--------10--9--10--9--7------|--------------------------|
-------------------------7b--|--------------------------|
-----------------------------|-----9~-----7-------------|
-----------------------------|------------------5-------|
-----------------------------|--------------------------|

E E E E E E E E E E. E. E Q.
|-----7-----------------------|------------------------|
|--------10--9--10--9--7------|------------------------|
|-------------------------7b--|------------------------|
|-----------------------------|-----9---8---7----------|
|-----------------------------|------------------------|
|-----------------------------|------------------------|

E E E E E E E E E E Q E S E. E
|-----7-----------------------|-----10b------------12br---10b--|
|--------10--9--10--9--7------|--------------------------------|
|-------------------------7b--|--------------------------------|
|-----------------------------|--------------------------------|
|-----------------------------|--------------------------------|
|-----------------------------|--------------------------------|

E E E E E E E E E E. E. E Q.
|-----7-----------------------|------------------------|
|--------10--9--10--9--7------|------------------------|
|-------------------------7b--|------------------------|
|-----------------------------|-----9---8---7----------|
|-----------------------------|------------------------|
|-----------------------------|------------------------|

E. E. E E. E. E
|--------------------------|
|--------------------------|
|--------------------------|
|-------------------7---8--|
|--7---------7--9----------|
|------10------------------|

-----------------------------------------------------------------------

BRUG 1

E S S S S S S S S S S S S S S E S S S S S S S S S S S S S S
|--7--x-7---x-7-7---7---x-9-9-9-9-|--7--x-7---x-7-7---7---x-6-6-6-6-|
|--7--x-7---x-7-7---7---x-9-9-9-9-|--7--x-7---x-7-7---7---x-6-6-6-6-|
|--7--x-7---x-7-7---7---x-9-9-9-9-|--7--x-7---x-7-7---7---x-6-6-6-6-|
|---------------------------------|---------------------------------|
|---------------------------------|---------------------------------|
|---------------------------------|---------------------------------|

E S S S S S S S S S S S S S S E E S S E E E S S S S
|--7--x-7---x-7-7---7---x-9-9-9-9-|--x--7----7----7-----6-6-6-6-|
|--7--x-7---x-7-7---7---x-9-9-9-9-|--x--7----7----7-----6-6-6-6-|
|--7--x-7---x-7-7---7---x-9-9-9-9-|--x--7----7----7-----6-6-6-6-|
|---------------------------------|-----------------------------|
|---------------------------------|-----------------------------|
|---------------------------------|-----------------------------|

E S S S S S S S S S S S S S S E S S S S S S S S S S S S S S
|--7--x-7---x-7-7---7---x-9-9-9-9-|--7--x-7---x-7-7---7---x-6-6-6-6-|
|--7--x-7---x-7-7---7---x-9-9-9-9-|--7--x-7---x-7-7---7---x-6-6-6-6-|
|--7--x-7---x-7-7---7---x-9-9-9-9-|--7--x-7---x-7-7---7---x-6-6-6-6-|
|---------------------------------|---------------------------------|
|---------------------------------|---------------------------------|
|---------------------------------|---------------------------------|

E S S S S S S S S S S S S S S E E S E. E E E. S
|--7--x-7---x-7-7---7---x-9-9-9-9-|----------------------------|
|--7--x-7---x-7-7---7---x-9-9-9-9-|----------------------------|
|--7--x-7---x-7-7---7---x-9-9-9-9-|--------------------8g9-----|
|---------------------------------|-----9--L-8---7-----8g9-----|
|---------------------------------|--------------------8g9---5-|
|---------------------------------|----------------------------|

-----------------------------------------------------------------------

REFREIN

S S E E S S S S S S S S S S S S E E S S S S S S S S S S
|---------------------------------|--------------------------------|
|---------------------------------|--------------------------------|
|o--------------------------------|--------------------------------|
|o----------------------5---------|----------------------5---------|
|---7-5-7-------5-7-5-7-----7---4-|--5-4-5-------4-5-4-5-----4---5-|
|---------------------------------|--------------------------------|

S S E E S S S S S S S S S S S S S S E S S S S E S S S S
|--------------------------------|---------------------------------|
|--------------------------------|---------------------------------|
|--------------------------------|--------------------------------o|
|----------------------5---------|--------------------------------o| 2x
|--7-5-7-------5-7-5-7-----7---4-|--5-4-5-4----5-4-5-4----5-4-5-4--|
|--------------------------------|---------------------------------|

Q Q Q Q
|-----------------------|
|--10----9----8---------|
|--10----9----8---------|
|---9----8----7---------|
|--10----9----8----5----|
|-----------------------|

-----------------------------------------------------------------------

BRUG 2

E S S S S S S S S S S S S S S E S S S S S S S S S S S S S S
|---7--x-7---x-7-7---7---x-9-9-9-9-|--7--x-7---x-7-7---7---x-6-6-6-6-|
|---7--x-7---x-7-7---7---x-9-9-9-9-|--7--x-7---x-7-7---7---x-6-6-6-6-|
|o--7--x-7---x-7-7---7---x-9-9-9-9-|--7--x-7---x-7-7---7---x-6-6-6-6-|
|o---------------------------------|---------------------------------|
|----------------------------------|---------------------------------|
|----------------------------------|---------------------------------|

E S S S S S S S S S S S S S S E E S S E E E S S S S
|--7--x-7---x-7-7---7---x-9-9-9-9-|--x--7----7----7-----6-6-6-6--|
|--7--x-7---x-7-7---7---x-9-9-9-9-|--x--7----7----7-----6-6-6-6--|
|--7--x-7---x-7-7---7---x-9-9-9-9-|--x--7----7----7-----6-6-6-6-o|
|---------------------------------|-----------------------------o| 2x
|---------------------------------|------------------------------|
|---------------------------------|------------------------------|

E S S S S S S S S S S S S S S E S S S S S S S S S S S S S S
|--7--x-7---x-7-7---7---x-9-9-9-9-|--7--x-7---x-7-7---7---x-6-6-6-6-|
|--7--x-7---x-7-7---7---x-9-9-9-9-|--7--x-7---x-7-7---7---x-6-6-6-6-|
|--7--x-7---x-7-7---7---x-9-9-9-9-|--7--x-7---x-7-7---7---x-6-6-6-6-|
|---------------------------------|---------------------------------|
|---------------------------------|---------------------------------|
|---------------------------------|---------------------------------|

E S S S S S S S S S S S S S S E E. E. E E E. S
|--7--x-7---x-7-7---7---x-9-9-9-9-|---------------------------|
|--7--x-7---x-7-7---7---x-9-9-9-9-|---------------------------|
|--7--x-7---x-7-7---7---x-9-9-9-9-|-------------------8g9-----|
|---------------------------------|-----9---8---7-----8g9-----|
|---------------------------------|-------------------8g9---5-|
|---------------------------------|---------------------------|

-----------------------------------------------------------------------

REFREIN

S S E E S S S S S S S S S S S S E E S S S S S S S S S S
|---------------------------------|--------------------------------|
|---------------------------------|--------------------------------|
|o--------------------------------|--------------------------------|
|o----------------------5---------|----------------------5---------|
|---7-5-7-------5-7-5-7-----7---4-|--5-4-5-------4-5-4-5-----4---5-|
|---------------------------------|--------------------------------|

S S E E S S S S S S S S S S S S S S E S S S S E S S S S
|--------------------------------|---------------------------------|
|--------------------------------|---------------------------------|
|--------------------------------|--------------------------------o|
|----------------------5---------|--------------------------------o| 2x
|--7-5-7-------5-7-5-7-----7---4-|--5-4-5-4----5-4-5-4----5-4-5-4--|
|--------------------------------|---------------------------------|

Q Q Q Q
|-----------------------|
|--10----9----8---------|
|--10----9----8---------|
|---9----8----7---------|
|--10----9----8----5----|
|-----------------------|

-----------------------------------------------------------------------

SOLO

S S S S S S S S S S S S E S S E S E S E S E S E E
|---0-0-0--0-0-0--0-0-0---0--0---0---0----0---|-----------------------------|
|---0-0-0--0-0-0--0-0-0---0--0---0---0----0---|-----0----0----0----0----0---|
|o--4-4-4S-7-7-7S-9-9-9S-11-11S-13S-14S--16---|--4----4----4----4----4--0--o|
|o--------------------------------------------|----------------------------o|
|---------------------------------------------|-----------------------------|
|---------------------------------------------|-----------------------------|

E S S S S S S S S S S S S S S E S E S E S E S E E
|-----------------------------------------|----------------------------|
|-----------------------------------------|----------------------------|
|-----------------------------------------|----------------------------|
|-----12S-10---10S-9---9S-7---7S-5---5S-7-|----------------------------|
|--0---------0-------0------0------0------|-----0----0----0----0----0--|
|-----------------------------------------|--5----5----5----5----5-----|


S S S S S S S S S S S S S S E E S E S E S E S Q
|-----------------------------------------|---------------------------|
|-----------------------------------------|---------------------------|
|-----------------------------------------|---------------------------|
|--12S-10---10S-9---9S-7---7S-5---5S-7-7--|---------------------------|
|---------0-------0------0------0---------|-----0----0----0-----------|
|-----------------------------------------|--5----5----5----5---------|

-----------------------------------------------------------------------

COUPLET 2
E E E E E E E E E E H.
|-----7-----------------------|----------------------|
|--------10--9--10--9--7------|----------------------|
|-------------------------7b--|----------------------|
|-----------------------------|-----9----------------|
|-----------------------------|----------------------|
|-----------------------------|----------------------|

|--3--|
E E E E E E E E E E. E. E S S S S S S S
|-----7-----------------------|------------------------------------|
|--------10--9--10--9--7------|------------------------10----------|
|-------------------------7b--|------------------9S-11----11S-9p-7-|
|-----------------------------|-----9---8---7----------------------|
|-----------------------------|------------------------------------|
|-----------------------------|------------------------------------|


E E E E E E E E E E H.
|-----7-----------------------|----------------------|
|--------10--9--10--9--7------|----------------------|
|-------------------------7b--|----------------------|
|-----------------------------|-----9----------------|
|-----------------------------|----------------------|
|-----------------------------|----------------------|

E E E E E E E E E E. E. E Q.
|-----7-----------------------|------------------------|
|--------10--9--10--9--7------|------------------------|
|-------------------------7b--|------------------------|
|-----------------------------|-----9---8---7----------|
|-----------------------------|------------------------|
|-----------------------------|------------------------|

E E E E E E E E E E E E E E E E
|-----7-----------------------|---------------------------|
|--------10--9--10--9--7------|---------------------------|
|-------------------------7b--|---------------------------|
|-----------------------------|-----9~-----7--------------|
|-----------------------------|------------------5--------|
|-----------------------------|------------------------5--|

E E E E E E E E E E. E. Q Q
|-----7-----------------------|------------------------|
|--------10--9--10--9--7------|------------------------|
|-------------------------7b--|------------------------|
|-----------------------------|-----9---8---7\---------|
|-----------------------------|------------------------|
|-----------------------------|------------------------|

-----------------------------------------------------------------------

OUTRO

E E E E E E E E S S S S S S S S E E S E.
E||--------------------------|-------------------------------|
B||--------------------------|-------------------------------|
G||--------------------------|-------------------------------|
D||--------------------------|-------------------------------|
A||--4-----3-----2-----5--6--|--7-----------5---7--7--5-7S---|
E||--------------------------|----0---0---7---7--------------|

E E E E E E E E S S S S S S S S S S S S S S S S
|--------------------------|----------------------------------|
|--------------------------|----------------------------------|
|--------------------------|----------------------------------|
|--------------------------|----------------------------------|
|--4-----3-----2-----5--6--|--7-----------5---7-----------5---|
|--------------------------|----0---0---7---7---0---0---7---7-|

E E E E E E E E S S S S S S S S E E S E.
|--------------------------|-------------------------------|
|--------------------------|-------------------------------|
|--------------------------|-------------------------------|
|--------------------------|-------------------------------|
|--4-----3-----2-----5--6--|--7-----------5---7--7--5-7S---|
|--------------------------|----0---0---7---7--------------|

E E E E E E E E S S S S S S S S S S S S Q
|--------------------------|-------------------------------|
|--------------------------|-------------------------------|
|--------------------------|-------------------------------|
|--------------------------|-------------------------------|
|--4-----3-----2-----5--6--|--7-----------5---7------------|
|--------------------------|----0---0---7---7---0---0------|


Duration Legend
---------------
W - whole
H - half
Q - quarter
E - 8th
S - 16th
. - note dotted
|-n-| - n-tuplets

Tablature Legend
----------------
x - dead note
g - grace note
h - hammer on
p - pull off
b - bend
br - bendRelease
/ - slide into from below or out of upwards
\ - slide into from above or out of downwards
~ - vibrato

ProTabs promo.jpg

Onbeperkt en gratis toegang tot alle 25.000
Tabs & Chords en direct meespelen met

Artiest Liedje

...

Gitaarakkoorden red hot chili peppers - Mellowship slinky in b major

Dankzij de bladmuziek op deze pagina wordt het een stuk makkelijker om met de gitaar mee te spelen met Mellowship slinky in b major van red hot chili peppers De ProTabs van Gitaartabs worden door onze professionele gitaardocenten samengesteld. De tabs en chords zijn door leden zelf geplaatst. Deze undefined van red hot chili peppers met Mellowship slinky in b major is voor je geschreven door kaham

Tabs & Chords van red hot chili peppers - Mellowship slinky in b major

Bij de ProTabs delen we niet alleen de tablatuur maar ook de speelwijze van Mellowship slinky in b major Met een beetje gitaar ervaring moet je dit gitaarliedje zeker kunnen spelen, maar als het niet lukt zijn we er altijd om je te helpen. Door een gratis account aan te maken krijg je niet alleen toegang tot deze tab ,akkoorden & tabs van Mellowship slinky in b major maar kun je ook onbeperkt meespelen met een van de meer dan 25.000 andere tabs & chords in onze database.

Plaats opmerking

Beoordeel deze song

Rate UsDon’t love itNot greatGoodGreatLove itRate Us

Bedankt voor je beoordeling!