Edelweiss

Gitaarliedjes, tabs & akkoorden (chords) Edelweiss - sound of music

Songtype: Tab

arrow&v

Markeer als favoriet

Favoriet

Gemarkeerd als favoriet

Capo:

0

sound of music

sound of music

Song
Album
Categorie

Edelweiss

Downloads
903
Niveau
2

Geplaatst door
larse
ProTabs-promo.jpg

G D G C
E del-weiss E- del-weiss
e----------|-2-----2-|-3-------|------------|
B--0-----0-|----3----|----0----|-1-----1-|
G-----0----|---------|-------0-|----0------|
D----------|-0-------|-0-------|------------|
A----------|---------|---------|-3-----------|
E--3-------|---------|---------|-------------|

G Am7 D
Ev- ery mor-ning you greet me
e--------------|----------0--------|---------------|
B--0-----0---0-|-1----3------1-----|-3--------|
G-----0--------|----------0-----0--|----2-------|
D------------0-|-2-----------------|-0-----0----|
A--2-----------|-------------------|--------------|
E--------------|-------------------|---------------|

G D G C
Small and white clean and bright
e----------|-2-----2-|-3-------|-------------|
B--0-----0-|----3----|----0----|-1-----1--|
G-----0----|---------|-------0-|----0-------|
D----------|-0-------|-0-------|-------------|
A----------|---------|---------|-3------------|
E--3-------|---------|---------|--------------|

G D G
You look happy to meet me
e-------|------2—-------2-|-3--------3-----3-|
B--0----|-3-------3-------|----0--------0------|
G-----0-|------2----------|-------0--0---------|
D-------|-0---------------|-0--------------------|
A--2----|-----------------|-----------------------|
E-------|-----------------|-----------------------|
D G
Blossom of snow may you bloom and grow
e--2----------2----------|-----------3-----3---|
B------------------3-----|-0-----0------0------|
G--2----------2----------|----0------0--------|
D------0---0-----------0-|-0------------------|
A------------------------|-----------------------|
E------------------------|-----------------------|

C A7 D
Bloom and grow for-ev- er
e--0-----0-|-0-----0-|-2-----2--2-------|
B-----1----|----2----|----3--------3------|
G----------|-0-------|-2--------2-----2--|
D--2-------|---------|----------------------|
A----------|---------|-----------------------|
E----------|---------|-----------------------|

G D G C
E- del-weiss E- del-weiss
e----------|-2-----2-|-3-------|------------|
B--0-----0-|----3----|----0----|-1-----1--|
G-----0----|---------|-------0-|----0-------|
D----------|-0-------|-0-------|-------------|
A----------|---------|---------|-3------------|
E--3-------|---------|---------|--------------|

G D G
Bless my homeland for ev- er
e-------|----2--------2-|-3--------3--|
B--0----|-3------3------|----0-------|
G-----0-|----2----------|-------0--0-|
D-------|-0-------------|-0------------|
A--2----|---------------|---------------|
E-------|---------------|-----------------|

ProTabs promo.jpg

Onbeperkt en gratis toegang tot alle 25.000
Tabs & Chords en direct meespelen met

Artiest Liedje

...

Gitaarakkoorden sound of music - Edelweiss

Dankzij de bladmuziek op deze pagina wordt het een stuk makkelijker om met de gitaar mee te spelen met Edelweiss van sound of music De ProTabs van Gitaartabs worden door onze professionele gitaardocenten samengesteld. De tabs en chords zijn door leden zelf geplaatst. Deze undefined van sound of music met Edelweiss is voor je geschreven door larse

Tabs & Chords van sound of music - Edelweiss

Bij de ProTabs delen we niet alleen de tablatuur maar ook de speelwijze van Edelweiss Met een beetje gitaar ervaring moet je dit gitaarliedje zeker kunnen spelen, maar als het niet lukt zijn we er altijd om je te helpen. Door een gratis account aan te maken krijg je niet alleen toegang tot deze tab ,akkoorden & tabs van Edelweiss maar kun je ook onbeperkt meespelen met een van de meer dan 25.000 andere tabs & chords in onze database.

Plaats opmerking

Verstuur

Beoordeel deze song

Rate UsDon’t love itNot greatGoodGreatLove itRate Us

Bedankt voor je beoordeling!