Connected By Love

Gitaarliedjes, tabs & akkoorden (chords) Connected By Love - Jack White

Songtype: Chords

arrow&v

Markeer als favoriet

Favoriet

Gemarkeerd als favoriet

Capo:

0

Jack White

Jack White

Song
Album
Categorie

Connected By Love

Downloads
1696
Niveau
2
Boarding House Reach

Geplaatst door
Jack White
ProTabs-promo.jpg

(G)Woman, don't you know what I'm (D)suffering from?
(G)Ease my pain, make it (D)wash on with the rain
(G)Relieve me and put it up (D)on your shelf
(G)Take it away, and give it to (D)somebody else

Cause I (G)know, we're (Bb)connected by love
Yes I (G)know, we're con(Bb)nected, connected
Connected by (G)love, (Bb)yeah
I wanna be directed by your (G)love, (Bb)connected by (G)love

(G)Friend of mine, you seem to (D)know me best
(G)You chose me (D)out of all of the rest
(G)Take me home with you and (D)help me forget
(G)Let's take the worst and somehow (D)turn it into the best

Cause I (G)know (we're connected, we're connected), (Bb)we're connected by love
Yes I (G)know (we're connected, we're connected), we're con(Bb)nected, connected
Connected by (G)love (we're connected, we're connected), (Bb)yeah
I can't be rejected by your (G)love (we're connected, we're connected, (Bb)yeah), yes, whoa

(G)(Bb)(G)(Bb) (G)(Bb)(G)(Bb) (G)(Bb)(G)(Bb)

(G)What have I done, I have (D)pushed away everyone
(G)Help me forget, let's (D)put it all to bed
(G)Forgive me and save me (D)from myself
(G)Don't forsake me woman, and go and choose (D)somebody else

'Cause I (G)know (we're connected, we're connected), (Bb)we're connected by love (we're connected)
Yes I (G)know (we're connected, we're connected), we're con(Bb)nected, connected
Connected by (G)love (oooh), yes I'm in(Bb)fected
I need to be protected by your (G)love (we're connected, we're connected,(Bb) we’re connected)
Connected, connected by (G)love

Solo

e|-----------------------------|--13--------13-12----13-12-----|--/15---13---12-----------|
B|--13-12-13-15---13-12-13-15--|-------15---------15-------15--|----------------15-13-15--|
G|-----------------------------|-------------------------------|--------------------------|
D|-----------------------------|-------------------------------|--------------------------|
A|-----------------------------|-------------------------------|--------------------------|
E|-----------------------------|-------------------------------|--------------------------|

e|------------------------------------------13-12----/15-------|
B|--13-12-13-13br15p12------13br15p12-------------15-----------|
G|---------------------12-------------12-----------------------|
D|-------------------------------------------------------------|
A|-------------------------------------------------------------|
E|-------------------------------------------------------------|
/ = slide up

ProTabs promo.jpg

Onbeperkt en gratis toegang tot alle 25.000
Tabs & Chords en direct meespelen met

Artiest Liedje

...

Gitaarakkoorden Jack White - Connected By Love

Dankzij de bladmuziek op deze pagina wordt het een stuk makkelijker om met de gitaar mee te spelen met Connected By Love van Jack White De ProTabs van Gitaartabs worden door onze professionele gitaardocenten samengesteld. De tabs en chords zijn door leden zelf geplaatst. Deze undefined van Jack White met Connected By Love is voor je geschreven door Jack White

Tabs & Chords van Jack White - Connected By Love

Bij de ProTabs delen we niet alleen de tablatuur maar ook de speelwijze van Connected By Love Met een beetje gitaar ervaring moet je dit gitaarliedje zeker kunnen spelen, maar als het niet lukt zijn we er altijd om je te helpen. Door een gratis account aan te maken krijg je niet alleen toegang tot deze chords ,akkoorden & tabs van Connected By Love maar kun je ook onbeperkt meespelen met een van de meer dan 25.000 andere tabs & chords in onze database.

Plaats opmerking

Verstuur

Beoordeel deze song

Rate UsDon’t love itNot greatGoodGreatLove itRate Us

Bedankt voor je beoordeling!