Hands

Gitaarliedjes, tabs & akkoorden (chords) Hands - kane

Songtype: Chords

arrow&v

Markeer als favoriet

Favoriet

Gemarkeerd als favoriet

Capo:

0

kane

kane

Song
Album
Categorie

Hands

Downloads
2117
Niveau
2

Geplaatst door
gitaartabs
ProTabs-promo.jpg

Hands

Riff1a
e-------------------------------
B----------8--------------8-----
G-7---7-7--7-----7---7-7--7-----
D-7---7-7--5-----7---7-7--5-----
A-5---5-5--------5---5-5--------
E-------------------------------
D5 G* D5 G*

Riff1b
e------------------------
B------------------------
G-5---5--------5---5-----
D-5---5--5-----5---5--5--
A-3---3--5-----3---3--5--
E--------3------------3-
C5 G5 C5 G5


intro solo
e-----------------------------------------------------
B-----------------------------------------------------
G-7~~~~~~~~---7---9-7-----5-5-------5-5--------5-5-5--
D-----------7---7-----7-------5---------5-----7-7-7---
A-----------------------------------------------------
E-----------------------------------------------------

e-----------------------------------------------
B-----------------------------------------------
G-7~~~~~~~~---7---9-7-----5-5-------5-5---------
D-----------7---7-----7-------5---------5-------
A-----------------------------------------------
E-----------------------------------------------

[Intro]
D G D G
Uh
D G D G

C G C G
Hey hey
D G D G
Yeah Oh no no
C G C G
no no no


D (& play riff1)
I saw you, you stood there
C G C G D
I've seen you right there from the start
D C
With every heartbeat closer
G C G
I've seen you right there, where you are
Bm A
And it could have been so fine yeah yeah
Bm C
Oh it could have been so fine yeah yeah

D
My question unspoken
C G C G D
I want your heart I want your soul
D
With every heartbeat closer
C G C G
I want you, baby could you give it to me now
Bm A
And it could have been so fine yeah yeah
Bm C G
Oh it could have been so fine yeah yeah

[Chorus]
D D/C# C
So let me fall into your hands____
G
Take me far away
D D/C# C G
I am calling for your hands_________

D (& solo)
Eh hey yeah

D
So talk to me, say you want this yeah
C G C G D
I want your body next to mine
D C
With every heartbeat closer___
G C G
I want you baby could you give it to me now
Bm A
And it could have been so fine yeah yeah
Bm C
Oh it could have been so fine yeah yeah

[Chorus]
D D/C# C
Let me fall into your hands____
G
Take me far away
D D/C# C G
I am calling for your hands_________ oh


Chorus solo
e-10----10----
B----10----10-


D D/C# C
Let me fall into your hands____
G
Take me far away
D D/C# C G
I am calling for your hands_________


Solo (silent part, use slide)
e------------------/3~~~~~~---
B-----------7--\2--/3~~~~~~---
G-5/7~~~~~~----\2-------------
D-----------------------------
A-----------------------------
E-----------------------------

Bm A G / / ///
So let me fall into your hands________ Yeah yeah

[Solo]
D D/C# C G
Woohoohoohoo
D D/C# C G


e-------------------5--5----------------5--6--5--3---5--6--5--3-
B-5-5-5-5-5-5-5-5---5--5----5b6---5b6---------------------------
G-------------------------------7-------------------------------
D---------------------------------------------------------------
A---------------------------------------------------------------
E---------------------------------------------------------------

e--------------------------------5--6--5--3---2--3--2--3-
B---5b6r5---5b6---5b6r5---5b6----------------------------
G-7-------7-----7-------7--------------------------------
D--------------------------------------------------------
A--------------------------------------------------------
E--------------------------------------------------------

[Chorus]
D D/C# C
So let me fall into your hands____
G
Take me far away
D D/C# C G
I am calling for your hands_________ yeah!

D D/C# C
Let me fall into your hands____
G
Take me far away
D D/C# C G
I am calling for your hands_________ oh

D D/C# C G
Wow baby yeah
Let me fall into your hands (2x)
I'm calling, calling, calling, calling
Yeah yeah yeah


Chords:
D xx0232
G* xx578x
C5 x355xx
G5 355xxx
C x32010
G 320033
Bm x24432
A x02220
D/C# x40232

ProTabs promo.jpg

Onbeperkt en gratis toegang tot alle 25.000
Tabs & Chords en direct meespelen met

Artiest Liedje

...

Gitaarakkoorden kane - Hands

Dankzij de bladmuziek op deze pagina wordt het een stuk makkelijker om met de gitaar mee te spelen met Hands van kane De ProTabs van Gitaartabs worden door onze professionele gitaardocenten samengesteld. De tabs en chords zijn door leden zelf geplaatst. Deze undefined van kane met Hands is voor je geschreven door gitaartabs

Tabs & Chords van kane - Hands

Bij de ProTabs delen we niet alleen de tablatuur maar ook de speelwijze van Hands Met een beetje gitaar ervaring moet je dit gitaarliedje zeker kunnen spelen, maar als het niet lukt zijn we er altijd om je te helpen. Door een gratis account aan te maken krijg je niet alleen toegang tot deze chords ,akkoorden & tabs van Hands maar kun je ook onbeperkt meespelen met een van de meer dan 25.000 andere tabs & chords in onze database.

Plaats opmerking

Verstuur

Beoordeel deze song

Rate UsDon’t love itNot greatGoodGreatLove itRate Us

Bedankt voor je beoordeling!