Waiting, waiting

Gitaarliedjes, tabs & akkoorden (chords) Waiting, waiting - kane

Songtype: Chords

arrow&v

Markeer als favoriet

Favoriet

Gemarkeerd als favoriet

Capo:

0

kane

kane

Song
Album
Categorie

Waiting, waiting

Downloads
483
Niveau
2

Geplaatst door
gitaartabs
ProTabs-promo.jpg

Waiting, waiting

Riff1
palm-mute
e-----------------------------------------------------------------
B-----------------------------------------------------------------
G-----------------------------------------------------------------
D-9-9-9-9-9-9-9-9-9-9-9-9-9-9-9-9-9-9-9-9-9-9-9-9-9-9-9-9-9-9-9-9-
A-7-7-7-7-7-7-7-7-6-6-6-6-6-6-6-6-5-5-5-5-5-5-5-5-x-x-x-x-x-x-x-x-
E-------------------------------------------------9-9-9-9-9-9-9-9-
E5 E/D# E/D E/C#

[Intro]
E5 E/D# E/D E/C#
E5 E/D# E/D E/C#

E5
Waiting waiting, you keep me waiting
E/D# E/D
Clock turns back, listen to the beat of my heart
E/C#
Every second seems to chain me baby, listen to the beat of my heart
E5 E/D#
Oh my love I know you hate me
E/D E/C#
Oh my love

[Bass & drum enter]
E5 E/D# E/D E/C#
Ooohhh_______
E5 E/D# E/D E/C#
Yeah__

E5
Waiting waiting, you got me waiting
E/D# E/D
Clock turns back, listen to the beat of my heart
E/C#
Every second seems to change me baby, listen to the beat of my heart
E5 E/D#
Oh my God I know you hear me
E/D
Won't you listen to the beat of my heart
E/C#
Don't care what you say, don't care what you say


[Chorus]
G D Em
Every time I lose my senses
C C
Every time you seem to want me more
D Riff2 4x
Oh take the best of me, but give me what I need

Riff2
e-----------------------
B-----------------------
G-----------------------
D-----------------------
A-2--2--2-2-2-2-2-2-2-2-
E-3--0--3-0-0-0-0-0-0-0-
G E5 G E5

E5
Waiting waiting, you got me waiting
E/D# E/D
Clock turns back, listen to the beat of my heart
E/C#
Every second seems to hit me baby, listen to the beat of my heart
E5 E/D#
Oh my God I know you hate me
E/D
I know you hate me
E/C#
I don't care, don't care what you say

[Chorus]
G D Em
Every time I lose my senses
C C
Every time you seem to want me more
D Riff2 8x
Oh take the best of me, but give me what I need

E5 E/D# E/D E/C#
E5 E/D# E/D E/C#


Riff3
e----------------------------------------------------------------------
B----------------------------------------------------------------------
G-9---9--9-9---9--11--11-11-11--11--12---12--12-12--12---14---14-14-14-
D----------------------------------------------------------------------
A-7---7--7-7---7--9---9--9--9---9---10---10--10-10--10---12---12-12-12-
E----------------------------------------------------------------------
E5 F#5 G5 A5



E5 E/D# E/D E/C#
& Riff 3
E5 E/D# E/D E/C#
& Riff 3

[Bass break]

E5 E/D# E/D E/C#
E5 E/D# E/D E/C# [pause]

[Solo]
E5 E/D# E/D E/C#
E5 E/D# E/D E/C#

Bass riffA 8x
G--------------------------------------
D--------------------------------------
A--------------5-----------------------
E-0--0-0-2-0-3---5---0--0-0-2-0-3-0-5--

E5 & Bass riffA 2x
Don't care what you say
G D
Don't care what__ you say______
Em C
Don't care what__ you say_____
C/B C/A G D Riff2 4x
Oh baby, oh take the best of me, but give me what I need Yeah yeah

[Chorus]
G D Em
So every time I lose my senses
C C
Every time you seem to want me more
C/B C/A G D Riff2 4x
Oh take the best of me, but give me what I need Waiting waiting 3x


Chords:
E5 x79xxx
E/D# x69xxx
E/D x59xxx
E/C# 9x9xxx
G 320033
D xx0232
Em 022000
C x32010
C/B x20010
C/A x00010

ProTabs promo.jpg

Onbeperkt en gratis toegang tot alle 25.000
Tabs & Chords en direct meespelen met

Artiest Liedje

...

Gitaarakkoorden kane - Waiting, waiting

Dankzij de bladmuziek op deze pagina wordt het een stuk makkelijker om met de gitaar mee te spelen met Waiting, waiting van kane De ProTabs van Gitaartabs worden door onze professionele gitaardocenten samengesteld. De tabs en chords zijn door leden zelf geplaatst. Deze undefined van kane met Waiting, waiting is voor je geschreven door gitaartabs

Tabs & Chords van kane - Waiting, waiting

Bij de ProTabs delen we niet alleen de tablatuur maar ook de speelwijze van Waiting, waiting Met een beetje gitaar ervaring moet je dit gitaarliedje zeker kunnen spelen, maar als het niet lukt zijn we er altijd om je te helpen. Door een gratis account aan te maken krijg je niet alleen toegang tot deze chords ,akkoorden & tabs van Waiting, waiting maar kun je ook onbeperkt meespelen met een van de meer dan 25.000 andere tabs & chords in onze database.

Plaats opmerking

Verstuur

Beoordeel deze song

Rate UsDon’t love itNot greatGoodGreatLove itRate Us

Bedankt voor je beoordeling!