Too Many Happy Faces (bas)

Gitaarliedjes, tabs & akkoorden (chords) Too Many Happy Faces (bas) - ks choice

Songtype: Chords

arrow&v

Markeer als favoriet

Favoriet

Gemarkeerd als favoriet

Capo:

0

ks choice

ks choice

Song
Album
Categorie

Too Many Happy Faces (bas)

Cocoon Crash

Downloads
397
Niveau
5
Geplaatst door
Basmeisje
ProTabs-promo.jpg

K's Choice - Too Many Happy Faces (bas)

Intro
D||-------2------2-----|-------2-------2-----|
A||--0-0---0-0---0-0-|--0-0----0-0---0-0-|
E||---------------------|---------------------|

D||------2------2------|-------2-------2-----|
A||--0-0---0-0---0-0-|-------------------|
E||--------------------|---4-4----4-4----4-4-|
Too many happy faces, I wonder what that means

D||-------0-----0-----|--------0--------0-----|
A||-----------------------|----------------------|
E||--3-3---3-3---3-3-|--2-2----2-2---3-3-|
Are you personally offended by an iron on your jeans

D||-------2------2-----|------2-------2-----|
A||--0-0---0-0---0-0-|---------------------|
E||---------------------|--4-4----4-4---4-4-|
Too many happy faces, is that more than you can bear

D||------0--------0------|------0------0-----0-|
A||-----------------------|-----------------------|
E||--3-3----3-3---3-3-|--2-2----2-2----3---|
Or is it part of what you should be, lack of hygiene in your hair

D||--------2------2------|------2--------2-----|
A||--0-0----0-0---0-0-|-----------------------|
E||-----------------------|--4-4----4-4---4-4-|
Ooooohhh Ooooohhh

D||------0------0-------|-------------------|
A||----------------------|-------------------|
E||--3-3---3-3---3-3-|--2----------------|
Ooooohhh Ooooohhh

A A / G# A / G A / F# (2x)

A A / G# A / G A / F#
If I thought you were clever, I'd be even more upset
A A / G# A / G A / F#
And if you knew what you were saying, I might even have respect
D
As a Christian I should love you

A B G
But I don't need to hear you're depressing remarks
A B G
See your know-it-all-face on TV
A B G
And I couldn't care less about what you want to say
D C#5
And I wish that it wasn't just me

A A / G# A / G A / F# (2x)

A A / G# A / G A / F#
Oh I don't think I'm better or kinder of heart
A A / G# A / G A / F#
I'm as guilty as I can be
A A / G# A / G A / F#
But every chance I get to put a smile on someone's face
D
I will take it, believe me

A B G
But I don't need to hear you're depressing remarks
A B G
See your know-it-all-face on TV
A B G
And I couldn't care less about what you want to say
D C#5 C5 D5 A
And I wish that it wasn't just me, though I wish that it wasn't just me

A A / G# A / G A / F# (2x)

D||----2-------2-|---2-----2-|---0------0-|---0------0-|
A||--0----0-0---|-------------|-------------|-------------|
E||---------------|-4---4-4---|-3---3-3---|-2---2-2---|

D||----2-------2-|----2------2-|
A||---0---0-0----|--------------|
E||----------------|--4---4-4---|
Too many happy faces, how eloquent you are

D||----0------0-|---0-----0-|
A||--------------|-------------|
E||--3---3-3---|-2---2-2---|
You know someday I think you'll become a big, big superstar

D||----2------2-|---2-----2-|
A||--0---0-0---|-0---0-0---|
E||--------------|-------------|

A B G
Don't need to hear you're depressing remarks
A B G
See your know-it-all-face on TV
A B G
And I couldn't care less about what you want to say
D C#5
And I wish that it wasn't just me
A B G
Though I don't need to hear you're depressing remarks
A B G
See your know-it-all-face on TV
A B G
And I couldn't care less about what you want to say
D C#5 C5 D5 A
And I wish that it wasn't just me, though I wish that it wasn't just me
C5 D5 A
Though I wish that it wasn't just me

A C D (4x)
A C

ProTabs promo.jpg

Onbeperkt en gratis toegang tot alle 25.000
Tabs & Chords en direct meespelen met

Artiest Liedje

...

Gitaarakkoorden ks choice - Too Many Happy Faces (bas)

Dankzij de bladmuziek op deze pagina wordt het een stuk makkelijker om met de gitaar mee te spelen met Too Many Happy Faces (bas) van ks choice De ProTabs van Gitaartabs worden door onze professionele gitaardocenten samengesteld. De tabs en chords zijn door leden zelf geplaatst. Deze undefined van ks choice met Too Many Happy Faces (bas) is voor je geschreven door Basmeisje

Tabs & Chords van ks choice - Too Many Happy Faces (bas)

Bij de ProTabs delen we niet alleen de tablatuur maar ook de speelwijze van Too Many Happy Faces (bas) Met een beetje gitaar ervaring moet je dit gitaarliedje zeker kunnen spelen, maar als het niet lukt zijn we er altijd om je te helpen. Door een gratis account aan te maken krijg je niet alleen toegang tot deze chords ,akkoorden & tabs van Too Many Happy Faces (bas) maar kun je ook onbeperkt meespelen met een van de meer dan 25.000 andere tabs & chords in onze database.

Plaats opmerking

Beoordeel deze song

Rate UsDon’t love itNot greatGoodGreatLove itRate Us

Bedankt voor je beoordeling!