Het water

Gitaarliedjes, tabs & akkoorden (chords) Het water - Marco borsato

Songtype: Chords

arrow&v

Markeer als favoriet

Favoriet

Gemarkeerd als favoriet

Capo:

0

Marco borsato

Marco borsato

Song
Album
Categorie

Het water

Downloads
1989
Niveau
2
Geplaatst door
gitaartabs
ProTabs-promo.jpg

||------------------|----------------|----------------|
||o--------3--------|-------3--------|-------3--------|
||-------0----0---0-|-----0----0-----|-----0----0---0-|
||-----4--------4---|---4--------4---|---2--------2---|
||o--5--------------|-5------------0-|-3--------------|
||------------------|----------------|----------------|


1.,2.
Em7
|-------------------|------------------|
|-------3-----------|-------3----------|
|-----0-------------|----------0-------|
|---2-----------0h2-|-----2------2-----|
|-3-------0h2h3-----|---2--------------|
|-----------------0-|-0------------0---|


Dadd11
|-----------------||----------------|
|-------3--------o||-------3--------|
|----------0------||-----0----0---0-|
|-----2------0----||---4--------4---|
|---2----------0-o||-5--------------|
|-0---------------||----------------|


Cadd9
|----------------|----------------|----------------|
|-------3--------|-------3--------|-------3--------|
|-----0----0-----|-----0----0---0-|-----0----0-----|
|---4--------4---|---2--------2---|---2--------0---|
|-5------------0-|-3--------------|-3------------0-|
|----------------|----------------|----------------|


G
|----------------|----------------|
|-------3--------|-------3--------|
|----------0-----|----------0-----|
|-----0------0---|-----0------0---|
|---2----------2-|---2------------|
|-3--------------|-3------------0-|


G/F# F
|----------------|----------------|----------------|
|-------3--------|-------3--------|-------1--------|
|----------0-----|----------0-----|----------2-----|
|-----0------0---|-----0------0---|-----3------3---|
|---2----------2-|---2------------|---3----------3-|
|-2--------------|-2------------0-|-1--------------|


F#m
|----------------|----------------|
|-------1--------|-------2--------|
|----------2-----|----------2-----|
|-----3------3---|-----4------4---|
|---3----------3-|---4----------4-|
|-1--------------|-2--------------|


Bm Bm/A
|----------------|----------------|----------------|
|-------2--------|-------3--------|-------3--------|
|----------2-----|-----4----4-----|-----4----4-----|
|-----4------4---|---4--------4---|---4--------4---|
|---4----------4-|-2------------0-|-0------------0-|
|-2--------------|----------------|----------------|


Em A G A
~
|----------------|----------|----------------|----------------|----------------|
|-------0--------|-0--------|-------3--------|-------3--------|-------2--------|
|----------0-----|-0--------|----------4-----|----------4-----|-----2----2-----|
|-----2------2---|-2--------|-----5------5---|-----5------5---|---2--------2---|
|---2----------2-|-2--------|---5----------5-|---5----------5-|-0------------0-|
|-0--------------|-0--------|-3--------------|-3--------------|----------------|


D Bm
~
|----------|-2----2--0-0-|--2-2------|-2----2--2-2-|--2-2----|
|-2--------|-3----3--3-3-|--3-3------|-3----3--2-2-|--3-3----|
|-2--------|-2----2--2-2-|--2-2------|-4----4--4-4-|--4-4----|
|-2--------|-0----0--0-0-|--0-0------|-4----4--4-4-|--4-4----|
|-0--------|-0----0------|--0-0------|-2----2--2-2-|--2-2----|
|----------|-------------|-----------|-2----2--2-2-|--2-2----|


F#m Bm Bm/A G
|-2----2--2-2-|--2-2----2-2-|-2--2----------|-------2--------|----------------|
|-2----2--2-2-|--2-2----2-2-|-3----3--------|----------3-----|-------3--------|
|-2----2--2-2-|--2-2----2-2-|-4-------4-----|-----4------4---|----------0-----|
|-4----4--4-4-|--4-4----4-4-|-4---------4---|---4----------4-|-----0------0---|
|-4----4--4-4-|--4-4----4-4-|-2-----------2-|-0--------------|---2----------2-|
|-2----2--2-2-|--2-2----2-2-|-2-------------|----------------|-3--------------|


G/F# A
~
|----------------|----------------|----------------|----------------|------|
|-------3--------|-------3--------|-------3--------|-------2--------|-2----|
|----------0-----|----------0-----|----------0-----|-----2----2-----|-2----|
|-----0------0---|-----0------0---|-----0------0---|---2--------2---|-2----|
|---2----------0-|---2----------2-|---2----------0-|-0------------0-|-0----|
|-3--------------|-2--------------|-2--------------|----------------|------|


Cadd9 Dsus2
||-----------------|----------------|-------0--------|
||o-------3--------|-------3--------|-----3----3---3-|
||------0----0---0-|-----0----0---0-|---2--------2---|
||----2--------2---|---2--------2---|-0--------------|
||o-3--------------|-3--------------|----------------|
||-----------------|----------------|----------------|


Em7
3x
|-------0---------||------------------|
|-----3----3---3-o||-------3------3---|
|---2--------2----||----------0-------|
|-0---------------||-----2------2-----|
|----------------o||---2--------------|
|-----------------||-0----------------|


|-----------------|----------------|
|-------3-------3-|-------3------3-|
|---------0-------|----------0-----|
|-----2-----2-----|-----2------2---|
|---2---------2---|---2------------|
|-0---------------|-0--------------|


Dadd11
|-----------------|----------------|----------------|
|-------3-------3-|-------3--------|-------3--------|
|---------0-------|-----0----0---0-|-----0----0-----|
|-----2-----2-----|---4--------4---|---4--------4---|
|---2---------2---|-5--------------|-5------------0-|
|-0---------------|----------------|----------------|


Cadd9 D
~~~~~~~~
|-------------|------------|-2-------------2-|--------(2)----*|
|-------3-----|--------(3)-|---3-----------3-|--------(3)----*|
|-----0-------|------------|-----2---------2-|--------(2)----*|
|---2---------|------------|-------0---------|---------------*|
|-3-----------|------------|---------0---0---|---------------*|
|-------------|------------|-----------2-----|---------------*|

De tekst;

Ik staar over het water
Dat net als ik
Ooit in beweging was
Peilloos diep en dreigend zwart
Net als wat ik in je ogen las
Stekeblind, oostindisch doof
Wil ik voor altijd zijn
Om maar niet te zien of kunnen horen
Dat alles is verloren
Zonder jou kan ik niet
Eten, slapen, lopen,dansen, leven

Dus blijf ik hier nu zitten
En blijf ik hier nu wachten
Tot het water ooit weer in beweging komt
En dan drijf ik mee
Tot aan de zee
Waar jij
Op mij zal wachten

De lucht is licht
En eindeloos
En zo ver boven mij
Onaantastbaar en toch
Zo dichtbij
Net als jij
Het staat in de lucht geschreven
Maar op m'n lippen blijft het kleven
Zonder jou kan ik niet
Eten, slapen, lopen ,dansen, leven

En dus blijf ik hier nu zitten
En blijf ik hier nu wachten
Tot het water ooit weer in beweging komt
En dan drijf ik mee
Tot aan de zee
Waar jij
Op mij zal wachten

Ik staar over het water
Dat net als ik
Ooit in beweging was

ProTabs promo.jpg

Onbeperkt en gratis toegang tot alle 25.000
Tabs & Chords en direct meespelen met

Artiest Liedje

...

Gitaarakkoorden Marco borsato - Het water

Dankzij de bladmuziek op deze pagina wordt het een stuk makkelijker om met de gitaar mee te spelen met Het water van Marco borsato De ProTabs van Gitaartabs worden door onze professionele gitaardocenten samengesteld. De tabs en chords zijn door leden zelf geplaatst. Deze undefined van Marco borsato met Het water is voor je geschreven door gitaartabs

Tabs & Chords van Marco borsato - Het water

Bij de ProTabs delen we niet alleen de tablatuur maar ook de speelwijze van Het water Met een beetje gitaar ervaring moet je dit gitaarliedje zeker kunnen spelen, maar als het niet lukt zijn we er altijd om je te helpen. Door een gratis account aan te maken krijg je niet alleen toegang tot deze chords ,akkoorden & tabs van Het water maar kun je ook onbeperkt meespelen met een van de meer dan 25.000 andere tabs & chords in onze database.

Plaats opmerking

Beoordeel deze song

Rate UsDon’t love itNot greatGoodGreatLove itRate Us

Bedankt voor je beoordeling!