This ain't gonna work

Gitaarliedjes, tabs & akkoorden (chords) This ain't gonna work - alain clark

Songtype: Tab

arrow&v

Markeer als favoriet

Favoriet

Gemarkeerd als favoriet

Capo:

0

alain clark

alain clark

Song
Album
Categorie

This ain't gonna work

Downloads
1038
Niveau
2
Geplaatst door
rick
ProTabs-promo.jpg

Am 5-7-7-5-5-5
Am7 5-x-5-5-5-5
C x-3-5-5-5-3
G 3-5-5-4-3-3
Bb x-1-3-3-3-1
F 1-3-3-2-1-1
D x-5-7-7-7-5
Dsus4 x-5-7-7-8-5
Em 0-2-2-0-0-0
D/F# 2-x-0-2-3-2

Voor de exacte timing bezoek: http://www.youtube.com/watch?v=c9b9_eOwUIE

INTRO:
G Am G Am D C
e|---------3-----------------------|-----3------------------------------|
B|---------3-------7---------------|-----3-------7----------7---7-7-6-5-|
G|-x-x-----4-------7------------7-x|-----4-------7----------7---7-7-6-5-|
D|-x-x-----5-------7--7---------7-x|-----5-------7--7-------7---7-7-6-5-|
A|-x-x-----5----------7—5h7p5-7s9-x|-----5----------7-------5---5-5-4-3-|
E|-----3---3---5s7----5------------|-3---3---5s7----5-8-7-8-------------|

VERSE:
C G Bb F
No sign of improving, We're like a song that just ain't groovin'
C G Bb D
Oh, the harder we try, The more it seems that it's just not right

CHORUS:
G Am G Am D
e|------3-----------------------|-----3--------------------------|
B|------3-------7---------------|-----3-------7----------7---7-7-|
G|------4-------7------------7-x|-----4-------7----------7---7-7-|
D|------5-------7--7---------7-x|-----5-------7--7-------7---7-7-|
A|------5----------7—5h7p5-7s9-x|-----5----------7-------5---5-5-|
E|--3---3---5s7----5------------|-3---3---5s7----5-8-7-8---------|
Ooh baby, this ain't gonna work, Baby baby, this ain't gonna work

G Am G Am D C
e|-------3-----------------------|-----3------------------------------|
B|-------3-------7---------------|-----3-------7----------7---7-7-6-5-|
G|-x-----4-------7------------7-x|-----4-------7----------7---7-7-6-5-|
D|-x-----5-------7--7---------7-x|-----5-------7--7-------7---7-7-6-5-|
A|-x-----5----------7—5h7p5-7s9-x|-----5----------7-------5---5-5-4-3-|
E|---3---3---5s7----5------------|-3---3---5s7----5-8-7-8-------------|
Ooh baby, this ain't gonna work, baby baby, this ain't gonna work

VERSE:
C G
Girl we've got to make some changes
Bb F
We share the same bed, but we're living like strangers
C G
Oh and sure we get by
Bb D
But if it ain't true, then we're livin', we are livin'a lie girl

CHORUS:


BRIDGE:
Em D/F# G Am7 D
Oh if it's up to you and me then why aren't we dancing
Em D/F# G Am7
Oh I wish the powers that be would work in our way
D
But that ain't like it is today

INSTRUMENTAL:
G Am G Am D
e|------3-----------------------|-----3--------------------------|
B|------3-------7---------------|-----3-------7----------7---7-7-|
G|------4-------7------------7-x|-----4-------7----------7---7-7-|
D|------5-------7--7---------7-x|-----5-------7--7-------7---7-7-|
A|------5----------7—5h7p5-7s9-x|-----5----------7-------5---5-5-|
E|--3---3---5s7----5------------|-3---3---5s7----5-8-7-8---------|



G Am G Am D
e|---------3-----------------------|-----3----------------------|
B|---------3-------7---------------|-----3-------7------7---7-7-|
G|-x-x-----4-------7------------7-x|-----4-------7------7---7-7-|
D|-x-x-----5-------7--7---------7-x|-----5-------7--7---7---7-7-|
A|-x-x-----5----------7—5h7p5-7s9-x|-----5----------7---5---5-5-|
E|-----3---3---5s7----5------------|-3---3---5s7----5-----------|

F F E Eb D D D D
e|-8--8----7---6---5--------------------------------------------|
B|-10-10---9---8---7--------------------------------------------|
G|-10-10---9---8---7--------------------------------------------|
D|-10-10---9---8---7--------------------------------------------|
A|-8--8----7---6---5--------------------------------------------|
E|--------------------------------------------------------------|
Yeah and I'm really trying to feel you girl
I really wanna want you baby
I'm not trying to leave you girl
But how am I gonna stay when


ProTabs promo.jpg

Onbeperkt en gratis toegang tot alle 25.000
Tabs & Chords en direct meespelen met

Artiest Liedje

...

Gitaarakkoorden alain clark - This ain't gonna work

Dankzij de bladmuziek op deze pagina wordt het een stuk makkelijker om met de gitaar mee te spelen met This ain't gonna work van alain clark De ProTabs van Gitaartabs worden door onze professionele gitaardocenten samengesteld. De tabs en chords zijn door leden zelf geplaatst. Deze undefined van alain clark met This ain't gonna work is voor je geschreven door rick

Tabs & Chords van alain clark - This ain't gonna work

Bij de ProTabs delen we niet alleen de tablatuur maar ook de speelwijze van This ain't gonna work Met een beetje gitaar ervaring moet je dit gitaarliedje zeker kunnen spelen, maar als het niet lukt zijn we er altijd om je te helpen. Door een gratis account aan te maken krijg je niet alleen toegang tot deze tab ,akkoorden & tabs van This ain't gonna work maar kun je ook onbeperkt meespelen met een van de meer dan 25.000 andere tabs & chords in onze database.

Plaats opmerking

Beoordeel deze song

Rate UsDon’t love itNot greatGoodGreatLove itRate Us

Bedankt voor je beoordeling!