Purple haze

Gitaarliedjes, tabs & akkoorden (chords) Purple haze - jimi hendrix

Songtype: Tab

arrow&v

Markeer als favoriet

Favoriet

Gemarkeerd als favoriet

Capo:

0

jimi hendrix

jimi hendrix

Song
Album
Categorie

Purple haze

are you experienced?

Downloads
1760
Niveau
2
Geplaatst door
lars bezemer
ProTabs-promo.jpg

Beste Gitaartabbers,

Ik schok eigelijk wel toen ik zag dat er nog geen Jimi Hendrix songs geuploadt waren.
Jimi Hendrix was één van de grootste gitaarspelers allertijden en in mijn ogen nog steeds!
Ik wil vandaag de intro van Purple Haze met jullie doornemen.
Ik heb de tab zo makkelijk mogelijk gemaakt zodat de beginnende gitaarspelen ook wat mee kan pikken.
De intro is naar mijn mening vrij makkelijk op te pakken.
De sound is echter heel moerlijk te vinden.
Maar mocht je er nou echt niet uit komen met de juiste sound te vinden voor dit nummer mail dan a.u.b. even.
Voor de mensen die het nummer niet kennen: http://www.youtube.com/watch?v=tFVIL3DEMYo

Intro:

E-------------------------------- 4x herhalen
B--------------------------------
G--------------------------------
D---------------------8---------
A--------------------------------
E---------6---------------------

E----------------------------------------------------- 2x herhalen
B-----------------------8----------------------------
G--------------------7-------------------------------
D----------------/9--------7---7----5--------------
A------------------------------------------5-----/5--
E----------------------------------------------0------

E------------------------------------------------------
B------------------------------------------------------
G-----------------------------------------------------
D------------5-7-b7-5-----5----------------------
A------7-7----------------------0-------------------
E------------------------------------0-/3------------

E-----------------------------------------------------
B-----------------------------------------------------
G-------------------------------------7-7-9--------
D---------5-7-b7-5h7----------9----------------
A---7-7--------------------7-5--------------------
E-----------------------------------------------------

Nou dit was de intro van Purple Haze.
Ik hoop dat je er veel plezier aan hebt.
Heb je nog vragen of opmerkingen post dan even een reactie of mail naar:

larsbezemer@hotmail.com

ProTabs promo.jpg

Onbeperkt en gratis toegang tot alle 25.000
Tabs & Chords en direct meespelen met

Artiest Liedje

...

Gitaarakkoorden jimi hendrix - Purple haze

Dankzij de bladmuziek op deze pagina wordt het een stuk makkelijker om met de gitaar mee te spelen met Purple haze van jimi hendrix De ProTabs van Gitaartabs worden door onze professionele gitaardocenten samengesteld. De tabs en chords zijn door leden zelf geplaatst. Deze undefined van jimi hendrix met Purple haze is voor je geschreven door lars bezemer

Tabs & Chords van jimi hendrix - Purple haze

Bij de ProTabs delen we niet alleen de tablatuur maar ook de speelwijze van Purple haze Met een beetje gitaar ervaring moet je dit gitaarliedje zeker kunnen spelen, maar als het niet lukt zijn we er altijd om je te helpen. Door een gratis account aan te maken krijg je niet alleen toegang tot deze tab ,akkoorden & tabs van Purple haze maar kun je ook onbeperkt meespelen met een van de meer dan 25.000 andere tabs & chords in onze database.

Plaats opmerking

Beoordeel deze song

Rate UsDon’t love itNot greatGoodGreatLove itRate Us

Bedankt voor je beoordeling!