God of thunder

Gitaarliedjes, tabs & akkoorden (chords) god of thunder - kiss

Songtype: Tab

arrow&v

Markeer als favoriet

Favoriet

Gemarkeerd als favoriet

Capo:

0

kiss

kiss

Song
Album
Categorie

god of thunder

Downloads
255
Niveau
2

Geplaatst door
ProTabs-promo.jpg

e|---------------------------------------------------------------------------------------------|
B|---------------------------------------------------------------------------------------------|
G|---------------------------------------------------------------------------------------------|
D|---------------------------------5----------------------5---5--7-7pull up--5-7---------------|
A|-----7---5-5h7----------7----5-7----------7---5-5h7---7--------------------------------------|
E|-0-0---7-----------0-0----7-----------0-0---7------------------------------------------------|

e|-------------------------------------------------------------------------------|
B|-------------------------------------------------------------------------------|
G|-------------------------------------------------------------------------------|
D|--------------------------------5----------------------------------------------|
A|-----7---5-5h7----------7---5-7----------7---5-5h7------7---5h7-5h7------------|
E|-0-0---7------------0-0---7----------0-0---7----------0-0---7------------------|

Refrein
e|------------------------------------------------------------------------------------|
B|------------------------------------------------------------------------------------|
G|------------------------------------------------------------------------------------|
D|---------------------------------5------------------------5---5--7-7pull up--5-7----|
A|-----7---5-5h7----------7----5-7----------7---5-5h7---7-----------------------------|
E|-0-0---7-----------0-0----7-----------0-0---7---------------------------------------|

e|------------------------------------------------------------------------------|
B|------------------------------------------------------------------------------|
G|------------------------------------------------------------------------------|
D|--------------------------------5---------------------------------------------|
A|-----7---5-5h7----------7---5-7----------7---5-5h7------7---5h7-5h7-----------|
E|-0-0---7------------0-0---7----------0-0---7----------0-0---7-----------------|
(bovenstaande 2 keer spelen)

e|--------------------------------------------------------------------------|
B|---------------------------------------------------------------------------|
G|--5-5----7-7----7-7----9~-----5-5----9-9-----------------4~-----5-5-----7-7|
D|--5-5----5-5----7-7----9~-----5-5----9-9------2-2-2-2-2--4~-----5-5-----5-5|
A|--3-3-----------5-5----7~-----3-3----7-7------0-0-0-0-0--2~-----3-3--------|
E|---------------------------------------------------------------------------|

e|---------------------------------------------------------|
B|---------------------------------------------------------|
G|-----7-7----9~-----------------------7----7-7-7-7-7-7-7--|
D|-----7-7----9~---------5-4-5-4-5-----5----7-7-7-7-7-7-7--|
A|-----5-5----7~---------3-2-3-2-3----------5-5-5-5-5-5-5--|
E|---------------------------------------------------------|

Solo
e|--------------------------------------------------------------------------------------------------------------|
B|----------------------------------------------------------------10b~~----------15b-15b-15b/15-|
G|-------------------4b~~~--------7b-7b-7b/7--------------------------------------------------------|
D|--------------------------------------------------------9----------------------------------------------------|
A|-----------------------------------------------------------10-----------------------------------------------|
E|----6~~--7~~---------------------------------------------------------------------------------------------|


e|------------------------------------------------------------------------------------------------------------------------|
B|12-15-15b~---15/12--------------------------12-15/12----12---12--15/12---12---12--15/1|
G|------------------------------14-12/11~---14b---------------14b--14b-----------14b--14b----------|
D|------------------------------------------------------------------------------------------------------------------------|
A|------------------------------------------------------------------------------------------------------------------------|
E|------------------------------------------------------------------------------------------------------------------------|


e|-----------------------15b-15-12/15/12-----------------------|
B|2--15/12------12---------------------------15-15b-15b~~|
G|-------------14b-----------------------------------------------------|
D|------------------------------------------------------------------------|
A|------------------------------------------------------------------------|
E|------------------------------------------------------------------------|

Tekst
Youve got something about you
Youve got something I need
Daughter of aphrodite
Hear my words and take heed
I was born on olympus
To my father a son
I was raised by the demons
Trained to reign as the one

God of thunder and rock and roll
The spell youre under
Will slowly rob you of your virgin soul

Im the lord of the wastelands
A modern day man of steel
I gather darkness to please me
And I command you to kneel
Before the

God of thunder and rock and roll
The spell youre under
Will slowly rob you of your virgin soul

I am the lord of the wastelands
A modern day man of steel
I gather darkness to please me
And I command thee to kneel
Before the

God of thunder and rock and roll
The spell youre under
Will slowly rob you of your virgin soul

ProTabs promo.jpg

Onbeperkt en gratis toegang tot alle 25.000
Tabs & Chords en direct meespelen met

Artiest Liedje

...

Gitaarakkoorden kiss - god of thunder

Dankzij de bladmuziek op deze pagina wordt het een stuk makkelijker om met de gitaar mee te spelen met god of thunder van kiss De ProTabs van Gitaartabs worden door onze professionele gitaardocenten samengesteld. De tabs en chords zijn door leden zelf geplaatst. Deze undefined van kiss met god of thunder is voor je geschreven door undefined

Tabs & Chords van kiss - god of thunder

Bij de ProTabs delen we niet alleen de tablatuur maar ook de speelwijze van god of thunder Met een beetje gitaar ervaring moet je dit gitaarliedje zeker kunnen spelen, maar als het niet lukt zijn we er altijd om je te helpen. Door een gratis account aan te maken krijg je niet alleen toegang tot deze tab ,akkoorden & tabs van god of thunder maar kun je ook onbeperkt meespelen met een van de meer dan 25.000 andere tabs & chords in onze database.

Plaats opmerking

Verstuur

Beoordeel deze song

Rate UsDon’t love itNot greatGoodGreatLove itRate Us

Bedankt voor je beoordeling!