Tremble

Gitaarliedjes, tabs & akkoorden (chords) Tremble - lou rhodes

Songtype: Tab

arrow&v

Markeer als favoriet

Favoriet

Gemarkeerd als favoriet

Capo:

0

lou rhodes

lou rhodes

Song
Album
Categorie

Tremble

Downloads
1898
Niveau
2
beloved one

Geplaatst door
jan
ProTabs-promo.jpg

http://3voor12.vpro.nl/speler/ondemand/39514725

Em/F# = 044000 (middel- en ringvinger)


Em/F# Cadd9 B7 Am7
e |------------------------------------------| |-------------------|
B |----0---0--0----0---0--0-------3-----3----| |----0--------1-----|
G |----0---0--0----0---0--0-------0-----0----| |----2--------0-----|
D |----4---4--4----4---4--4-------2-----2----| |----1--------2-----|
A |-----------------------------3-----3------| |--2----------0-----|
E |--0---0-------0---0-----------------------| |-------------------|

E7sus4 Am7 D9 D7sus4 D7
e |---------------------------| |-----0-------3------2----|
B |----0----0--0----1---1--1--| |-----1-------1------1----|
G |----2----2--2----0---0--0--| |-----2-------2------2----|
D |----0----0--0----2---2--2--| |---0---------0------0----|
A |--2----2-------0---0-------| |-------------------------|
E |---------------------------| |-------------------------|


Intro: Em/F# Cadd9 (X 2)

Em/F# Cadd9
When you look at me
Em/F#
I'm as shaky as a leaf
Cadd9
On a new tree
Em/F# Cadd9
One look in your eyes
B7
And you make me
Am7
Tremble

Em/F# Cadd9 (X 2)

Em/F# Cadd9
You have something rare
Em/F#
Ah you take me to a place
Cadd9
I've never known before
Em/F# Cadd9
Oh the magic that we share
B7
Oh it makes me makes me
Am7
Tremble, yeah

Em/F# Cadd9

E7sus4 Am7
And when you hold my hand
E7sus4 Am7
Oh I could buzz with joy
E7sus4 Am7
Baby understand
D9 D7sus4 D7
I never felt this way with any other boy

Em/F# Cadd9 (X 2)

Em/F# Cadd9
Darlin', pity me
Em/F#
Tho' there's no place on this earth
Cadd9
I'd rather be
Em/F# Cadd9
Hmmm and all the world can see
B7
How you make me make me
Am7 Em/F#
Tremble
B7 Am7
How you make me make me
Em/F#
Tremble, yeah, yeah
B7 Am7
How you make me make me
Em/F#
Tremble

Yeah yeah yeah yeah yeah yeah yeah...

ProTabs promo.jpg

Onbeperkt en gratis toegang tot alle 25.000
Tabs & Chords en direct meespelen met

Artiest Liedje

...

Gitaarakkoorden lou rhodes - Tremble

Dankzij de bladmuziek op deze pagina wordt het een stuk makkelijker om met de gitaar mee te spelen met Tremble van lou rhodes De ProTabs van Gitaartabs worden door onze professionele gitaardocenten samengesteld. De tabs en chords zijn door leden zelf geplaatst. Deze undefined van lou rhodes met Tremble is voor je geschreven door jan

Tabs & Chords van lou rhodes - Tremble

Bij de ProTabs delen we niet alleen de tablatuur maar ook de speelwijze van Tremble Met een beetje gitaar ervaring moet je dit gitaarliedje zeker kunnen spelen, maar als het niet lukt zijn we er altijd om je te helpen. Door een gratis account aan te maken krijg je niet alleen toegang tot deze tab ,akkoorden & tabs van Tremble maar kun je ook onbeperkt meespelen met een van de meer dan 25.000 andere tabs & chords in onze database.

Plaats opmerking

Verstuur

Beoordeel deze song

Rate UsDon’t love itNot greatGoodGreatLove itRate Us

Bedankt voor je beoordeling!