Sweet dreams

Gitaarliedjes, tabs & akkoorden (chords) Sweet dreams - marilyn manson

Songtype: Tab

arrow&v

Markeer als favoriet

Favoriet

Gemarkeerd als favoriet

Capo:

0

marilyn manson

marilyn manson

Song
Album
Categorie

Sweet dreams

Downloads
106
Niveau
2

Geplaatst door
gitaartabs
ProTabs-promo.jpg

Sweet dreams....
e|-----------------|-------------------|-----------------|-------------------|
B|-----------------|-------------------|-----------------|-------------------|
G|-----------------|-------------------|-----------------|-------------------|
D|-----5---6---5---|-------------------|-----5---6---5---|-------------------|
A|-3-3---3---3---3-|-----6-/8-----5-/6-|-3-3---3---3---3-|-----6-/8-----5-/6-|
E|-----------------|-4-4------3-3------|-----------------|-4-4------3-3------|


e|----------------|----------------|----------------|
B|----------------|----------------|----------------|
G|----------------|55555555--------|----------------|
D|6666666666666665|5555555566666665|6666666555555555|
A|6666666666666665|3333333366666665|6666666655555555|
E|4444444444444443|--------44444443|4444444433333333|

Solo
e|------------------|---------------|------------------|-----------------|
B|------------------|---------------|------------------|-----------------|
G|------------------|---------------|------------------|--------10b11rb10|
D|10-8-10--12b13rb12|10-8--10--12b13|10-8-10--12b13rb12|10-8-10----------|
A|------------------|---------------|------------------|-----------------|
E|------------------|---------------|------------------|-----------------|

Tekst:
Sweet dreams are made of this.
Who am I to disagree?
Travel the world and the seven seas.
Everybody's looking for something.

Some of them want to use you.
Some of them want to get used by you.
Some of them want to abuse you.
Some of them want to be abused.

Sweet dreams are made of this.
Who am I to disagree?
Travel the world and the seven seas.
Everybody's looking for something.

Some of them want to use you.
Some of them want to get used by you.
Some of them want to abuse you.
Some of them want to be abused.

I wanna use you and abuse you.
I wanna know what's inside you.
Hold your head up, movin' on.
Keep your head up, movin' on.

Movin' on!

Sweet dreams are made of this.
Who am I to disagree?
Travel the world and the seven seas.
Everybody's looking for something.

Some of them want to use you.
Some of them want to get used by you.
Some of them want to abuse you.
Some of them want to be abused.

I'm gonna use you and abuse you.
I'm gonna know what's inside.
Gonna use you and abuse you.
I'm gonna know what's inside you.

ProTabs promo.jpg

Onbeperkt en gratis toegang tot alle 25.000
Tabs & Chords en direct meespelen met

Artiest Liedje

...

Gitaarakkoorden marilyn manson - Sweet dreams

Dankzij de bladmuziek op deze pagina wordt het een stuk makkelijker om met de gitaar mee te spelen met Sweet dreams van marilyn manson De ProTabs van Gitaartabs worden door onze professionele gitaardocenten samengesteld. De tabs en chords zijn door leden zelf geplaatst. Deze undefined van marilyn manson met Sweet dreams is voor je geschreven door gitaartabs

Tabs & Chords van marilyn manson - Sweet dreams

Bij de ProTabs delen we niet alleen de tablatuur maar ook de speelwijze van Sweet dreams Met een beetje gitaar ervaring moet je dit gitaarliedje zeker kunnen spelen, maar als het niet lukt zijn we er altijd om je te helpen. Door een gratis account aan te maken krijg je niet alleen toegang tot deze tab ,akkoorden & tabs van Sweet dreams maar kun je ook onbeperkt meespelen met een van de meer dan 25.000 andere tabs & chords in onze database.

Plaats opmerking

Verstuur

Beoordeel deze song

Rate UsDon’t love itNot greatGoodGreatLove itRate Us

Bedankt voor je beoordeling!