All the lazy dykes

Gitaarliedjes, tabs & akkoorden (chords) All the lazy dykes - morrissey

Songtype: Tab

arrow&v

Markeer als favoriet

Favoriet

Gemarkeerd als favoriet

Capo:

0

morrissey

morrissey

Song
Album
Categorie

All the lazy dykes

you are the quarry

Downloads
2041
Niveau
2
Geplaatst door
jan
ProTabs-promo.jpg

Verses:

Dm C
e |-------1------------1------------0------------0------
B |-----3---3--------3---3--------1---1--------1---1----
G |---2-------2----2---- --2----0-------0----0-------0--
D |-0------------0--------------------------------------
A |---------------------------3------------3------------
E |-----------------------------------------------------

G A
-------3------------3------------0------------0------|
-----3---3--------3---3--------2---2--------2---2----|
---0-------0----0-------0----2-------2----2-------2--| X 2
-----------------------------------------------------|
---------------------------0------------0------------|
-3------------3--------------------------------------|

Dm C
All the lazy dykes
G A
Cross-armed at the Palms
Dm C
Then legs astride their bikes
G A
Indigo burns on their arms

Bb F
One sweet day
Gm C
An emotional whirl
Bb F
You will be good to yourself
E A
And you'll come and join the girls

Dm C
All the lazy dykes
G A
They pity how you live
Dm C
Just "somebody's wife"
G
You give, and you give,
A
And you give, and you give

Give, and you give

Bb F
One sweet day
Gm C
An emotional whirl
Bb F
You will be good to yourself
E A
And you'll come and join the girls

Dm
Touch me, squeeze me
C
Hold me too tightly
G A
And when you look at me you actually see me

F C
And I've never felt so alive
Bb
In the whole of my life
Dm C
In the whole


Dm C
Free yourself, be yourself
Dm A Dm
Come to the Palms and see yourself

C F A Dm C
And at last your life begins
F A Dm C
At last your life begins
F A
At last your life
Dm C F A
They against
Dm C F A
At last your life begins

Dm C F A (X 2) Dm \

ProTabs promo.jpg

Onbeperkt en gratis toegang tot alle 25.000
Tabs & Chords en direct meespelen met

Artiest Liedje

...

Gitaarakkoorden morrissey - All the lazy dykes

Dankzij de bladmuziek op deze pagina wordt het een stuk makkelijker om met de gitaar mee te spelen met All the lazy dykes van morrissey De ProTabs van Gitaartabs worden door onze professionele gitaardocenten samengesteld. De tabs en chords zijn door leden zelf geplaatst. Deze undefined van morrissey met All the lazy dykes is voor je geschreven door jan

Tabs & Chords van morrissey - All the lazy dykes

Bij de ProTabs delen we niet alleen de tablatuur maar ook de speelwijze van All the lazy dykes Met een beetje gitaar ervaring moet je dit gitaarliedje zeker kunnen spelen, maar als het niet lukt zijn we er altijd om je te helpen. Door een gratis account aan te maken krijg je niet alleen toegang tot deze tab ,akkoorden & tabs van All the lazy dykes maar kun je ook onbeperkt meespelen met een van de meer dan 25.000 andere tabs & chords in onze database.

Plaats opmerking

Beoordeel deze song

Rate UsDon’t love itNot greatGoodGreatLove itRate Us

Bedankt voor je beoordeling!