Main theme

Gitaarliedjes, tabs & akkoorden (chords) Main theme - pirates of the caribbean

Songtype: Tab

arrow&v

Markeer als favoriet

Favoriet

Gemarkeerd als favoriet

Capo:

0

pirates of the caribbean

pirates of the caribbean

Song
Album
Categorie

Main theme

Downloads
1166
Niveau
2

Geplaatst door
cédric
ProTabs-promo.jpg



E----------------------0--1--1--1--3--0--0--------------------------------0--1--1--1--3--0--0------------ |
B-------1--3--3--3----------------------------3--1--3-------1--3--3--3----------------------------3--1--3 |
G----0-------------------------------------------------------0------------------------------------------------------- |
D---------------------------------------------------------------------------------------------------------------------- |
A---------------------------------------------------------------------------------------------------------------------- |
E---------------------------------------------------------------------------------------------------------------------- |

E----------------------0--1--3--3--1--3--6--6--5--3--5--------0--1--1--3--5-------1--0---1--0|
B-------1--3--3--3--------------------------------------------3--3--------------------3--3------3-------|
G----0----------------------------------------------------------------------------------------------------------|
D----------------------------------------------------------------------------------------------------------------|
A----------------------------------------------------------------------------------------------------------------|
E----------------------------------------------------------------------------------------------------------------|


^
|
2X spelen

ProTabs promo.jpg

Onbeperkt en gratis toegang tot alle 25.000
Tabs & Chords en direct meespelen met

Artiest Liedje

...

Gitaarakkoorden pirates of the caribbean - Main theme

Dankzij de bladmuziek op deze pagina wordt het een stuk makkelijker om met de gitaar mee te spelen met Main theme van pirates of the caribbean De ProTabs van Gitaartabs worden door onze professionele gitaardocenten samengesteld. De tabs en chords zijn door leden zelf geplaatst. Deze undefined van pirates of the caribbean met Main theme is voor je geschreven door cédric

Tabs & Chords van pirates of the caribbean - Main theme

Bij de ProTabs delen we niet alleen de tablatuur maar ook de speelwijze van Main theme Met een beetje gitaar ervaring moet je dit gitaarliedje zeker kunnen spelen, maar als het niet lukt zijn we er altijd om je te helpen. Door een gratis account aan te maken krijg je niet alleen toegang tot deze tab ,akkoorden & tabs van Main theme maar kun je ook onbeperkt meespelen met een van de meer dan 25.000 andere tabs & chords in onze database.

Plaats opmerking

Verstuur

Beoordeel deze song

Rate UsDon’t love itNot greatGoodGreatLove itRate Us

Bedankt voor je beoordeling!