Cancer

Gitaarliedjes, tabs & akkoorden (chords) Cancer - my chemical romance

Songtype: Chords

arrow&v

Markeer als favoriet

Favoriet

Gemarkeerd als favoriet

Capo:

0

my chemical romance

my chemical romance

Song
Album
Categorie

Cancer

Downloads
1384
Niveau
2
the black parade

Geplaatst door
tess
ProTabs-promo.jpg

Niet de echte goede tabs, maar wel te spelen en het klinkt goed!
Super mooi lied, en bovendien erg gevoelig..
Met dank aan Kevin voor de accorden!

E= 022100
B= 224442
C#m= 446654
Am= x02210
A= x02220
B= 224442
B/C= ?
F#m= 244222
G= 320001

Verse 1:
E B C#m Am
e|-----------------------|-----------------------|------------------|--------------------|\
B|-----------------0---|------------------4----|-------------5---|----------------1--| \
G|-------------1-------|-------------4--------|-----------6------|------------2------| \ 2X
D|---------2-----------|---------4------------|--------6---------|--------2-----------| /
A|-----2---------------|-----0----------------|----4-------------|----0---------------| /
E|----------------------|-----------------------|-------------------|---------------------|/

A E
e|---------------------|---------------------|
B|----------------2--|----------------0---|
G|------------2------|------------1-------|
D|--------2----------|--------2-----------|
A|----0--------------|----2---------------|
E|--------------------|---------------------|

Verse 2:
B B/C C#m Am
e|-----------------------|----|----------------------|--------------------|
B|------------------4---|----|---------------4----|----------------1--|
G|-------------4-------|----|------------5--------|------------2------|
D|--------4------------|----|--------6------------|--------2----------|
A|----0----------------|----|----6----------------|----0--------------|
E|----------------------|----|----------------------|--------------------|
F#m B E
e|--------------------|--------------------|--------------------|
B|----------------2--|----------------4-|----------------0--|
G|------------2-----|------------4------|-----------1-------|
D|--------4---------|--------4----------|--------2----------|
A|----4-------------|----0--------------|----2--------------|
E|-------------------|--------------------|--------------------|

Verse 3:
Same as Verse 1! :)

verse 4:

B B/C C#m Am E Am
e|-----------------------|----|----------------------|--------------------|--------------------|--------------------|
B|------------------4---|----|---------------4----|----------------1--|----------------0---|----------------1-|
G|-------------4-------|----|------------5--------|------------2------|------------1------|-------------2------|
D|--------4------------|----|--------6------------|--------2----------|--------2-----------|--------2----------|
A|----0----------------|----|----6----------------|----0--------------|----2---------------|----0--------------|
E|----------------------|----|----------------------|--------------------|---------------------|-------------------|

Accorden pakken en de 4 middelste snaren spelen!
C#m C#m B Am G
F#m B C#m C#m B B
F#m B E


Verse 1

E B C#m
Turn away, if you could get me a drink of water
Am
Cus my lips are chapped and faded
E
Call my aunt Marie
B C#m
Help her gather all my things
Am
And bury me in all my favourite colours
A E
My sisters and my brothers

Verse 2:

B B/C C#m Am
Still, I will not kiss you
F#m B E
Cus the hardest part of this is leaving you

Verse 3:

E B C#m
Now turn away, cuz I'm awful just to see
Am
Cuz all my hair's abandoned all my body
E
Oh my agony
B C#m
Know that i will never mary
Am
Baby I'm just soggy from the chemo
A E
But counting down the days to go

Verse 4:

B B/C C#m
It just ain't livin'
Am
And I just hope you know
E Am
That if you say goodbye today
C#m C#m B Am G
I'd ask you to be true
F#m B C#m C#m B B
Cus de hardest part of this is leaving you
F#m B E
Cuz the hardest part of this is leaving you.

ProTabs promo.jpg

Onbeperkt en gratis toegang tot alle 25.000
Tabs & Chords en direct meespelen met

Artiest Liedje

...

Gitaarakkoorden my chemical romance - Cancer

Dankzij de bladmuziek op deze pagina wordt het een stuk makkelijker om met de gitaar mee te spelen met Cancer van my chemical romance De ProTabs van Gitaartabs worden door onze professionele gitaardocenten samengesteld. De tabs en chords zijn door leden zelf geplaatst. Deze undefined van my chemical romance met Cancer is voor je geschreven door tess

Tabs & Chords van my chemical romance - Cancer

Bij de ProTabs delen we niet alleen de tablatuur maar ook de speelwijze van Cancer Met een beetje gitaar ervaring moet je dit gitaarliedje zeker kunnen spelen, maar als het niet lukt zijn we er altijd om je te helpen. Door een gratis account aan te maken krijg je niet alleen toegang tot deze chords ,akkoorden & tabs van Cancer maar kun je ook onbeperkt meespelen met een van de meer dan 25.000 andere tabs & chords in onze database.

Plaats opmerking

Verstuur

Beoordeel deze song

Rate UsDon’t love itNot greatGoodGreatLove itRate Us

Bedankt voor je beoordeling!