Come as you are (2)

Gitaarliedjes, tabs & akkoorden (chords) Come as you are (2) - nirvana

Songtype: Chords

arrow&v

Markeer als favoriet

Favoriet

Gemarkeerd als favoriet

Capo:

0

nirvana

nirvana

Song
Album
Categorie

Come as you are (2)

Downloads
3365
Niveau
2
Geplaatst door
fab
ProTabs-promo.jpg

Come As You Are (2)

Artiest: Nirvana
Album: Nevermind
Capo:
Tuning: E-A-D-G-B-E
uitgezocht door: fab

-------------------------------------------------------------------------

4/4

Em : 0-2-2-0-0-0
D : x-x-0-2-3-2
G : 3-5-5-4-3-3
Am : 5-7-7-5-5-5
C : x-3-2-0-1-0

Chord versie, tab staat onderaan!


Intro:
|Em |D |Em |D |
|Em |D |Em |D |

Em D Em
Come as you are, as you were,
D Em
As I want you to be
D Em D Em
As a friend, as a friend, as an old enemy.
D Em
Take your time, hurry up
D Em
The choice is yours, don't be late.
D Em D Em G
Take a rest, as a friend, as an old memoriiiia
Em G Em G Em G
Memoriiiia, memoriiiia, memoriiiia

Em D Em
Come doused in mud, soaked in bleach
D Em
As I want you to be
D Em D Em G
As a trend, as a friend, as an old memoriiiia
Em G Em G Em G
Memoriiiia, memoriiiia, memoriiiia

Am C Am C
And I swear that I don't have a gun
Am C
No I don't have a gun
Am C
No I don't have a gun

Solo:
|Em |D |Em |D |
|Em |D |Em |D | 4 x

Em G Em G Em G
Memoriiiia, memoriiiia, memoriiiia
Em G
Memoriiiia (and I don't have a gun)

Am C Am C
And I swear that I don't have a gun
Am C
No I don't have a gun
Am C
No I don't have a gun
Am C
No I don't have a gun
Am C
No I don't have a gun

Outro:
|Em |D |Em |D |
|Em |D |Em |D |


Heb je nog vragen? mail me: fabianpruissen@hotmail.com
Veel plezier!


=====================================================================

Tab versie:

COME AS YOU ARE
As recorded by Nirvana
(From the 1991 Album NEVERMIND)

Gtr I (D G C F A D) - 'clean electric'
Gtr II (D G C F A D) - 'dist electric'

Intro - Verse
Q=120
4/4
Gtr I
H E E E E Q E E E E E E E E E Q E E E Q E E E E E E 11x
|--------------|----------------||-----------------|-------------------||
|--------------|----------------||o----------------|------------------o||
|--------------|----------------||-----------------|-------------------||
|--------------|----------------||-----------------|-------------------||
|--------------|----0---0-------||o---2------2-----|----0---0---------o||
|--------0-0-1-|-2----2---2-2-1-||--0---0-0----0-1-|-2----2---2-2-1----||


E E E Q E E E Q. Q. E E E E E E E E E E 4x
|----------0-----||-------2--------|-------------------||
|-------0--0-0-0-||o------2----2---|------------------o||
|-------1--1-1-1-||-------4----4-0-|-2-2-2-2-2-2-2-2---||
|-------2----2-2-||--4---------4-0-|-2---2---2---2-----||
|---2------------||o---------------|-0---0---0---0----o||
|-----0----------||--2-------------|-------------------||


Q E E E E E E E E E Q E E E Q E E E E E E 3x
|----------------||-----------------|------------------||
|----------------||o----------------|-----------------o||
|----------------||-----------------|------------------||
|----------------||-----------------|------------------||
|----0---0-------||o---2------2-----|----0---0--------o||
|-2----2---2-2-1-||--0---0-0----0-1-|-2----2---2-2-1---||


Pre-Chorus
1.,2.,3. 4.
E E E Q E E E Q. Q. E E E E E E E E E E E E E E E E E E
|----------0-----||-------2--------|------------------||------------------||
|-------0--0-0-0-||o------2----2---|-----------------o||------------------||
|-------1--1-1-1-||-------4----4-0-|-2-2-2-2-2-2-2-2--||-2-2-2-2-2-2-2-2--||
|-------2----2-2-||--4---------4-0-|-2---2---2---2----||-2-2-2-2-2-2-2-2--||
|---2------------||o---------------|-0---0---0---0---o||-0-0-0-0-0-0-0-0--||
|-0---0----------||--2-------------|------------------||------------------||


Chorus
Gtr I
Q E Q Q. Q E Q E Q Q E Q Q. Q E Q E Q
|----------7----|--------------|---------7-----|---------------|
|----------7----|--------------|---------7-----|---------------|
|---------------|-7--7-7--7-7--|---------------|-7--7-7--7-7---|
|-9--9-9--------|-7--7-7--7-7--|-9--9-9--------|-7--7-7--7-7---|
|-9--9-9--------|-5--5-5--5-5--|-9--9-9--------|-5--5-5--5-5---|
|-7--7-7--------|--------------|-7--7-7--------|---------------|
|
| Gtr II
| H E Q. Q E Q E Q Q E Q E Q Q E Q E Q
|---------------|--------------|---------------|---------------|
|---------------|--------------|---------------|---------------|
|-4------4-4----|-7--7-7--7-7--|-4--4-4--4--4--|-7--7-7--7-7---|
|-4------4-4----|-7--7-7--7-7--|-4--4-4--4--4--|-7--7-7--7-7---|
|-2------2-2----|-5--5-5--5-5--|-2--2-2--2--2--|-5--5-5--5-5---|
|---------------|--------------|---------------|---------------|


Q E Q Q. Q E Q E Q Q E Q Q. E E E Q E E E
|---------7------|---------------|---------7------|------------------|
|---------7------|---------------|---------7------|------------------|
|----------------|-7--7-7--7-7---|----------------|-7-7-7-7----------|
|-9--9-9---------|-7--7-7--7-7---|-9--9-9---------|-7-7-7-7----------|
|-9--9-9---------|-5--5-5--5-5---|-9--9-9---------|-5-5-5-5----------|
|-7--7-7---------|---------------|-7--7-7---------|-----------0-0-1--|
|
| Q E Q E E E Q E Q E E E Q E Q E E E E E E E H
|----------------|---------------|----------------|------------------|
|----------------|---------------|----------------|------------------|
|-4--4-4--4--4-4-|-7--7-7--7-7-7-|-4--4-4--4--4-4-|-7-7-7-7-7--------|
|-4--4-4--4--4-4-|-7--7-7--7-7-7-|-4--4-4--4--4-4-|-7-7-7-7-7--------|
|-2--2-2--2--2-2-|-5--5-5--5-5-5-|-2--2-2--2--2-2-|-5-5-5-5-5--------|
|----------------|---------------|----------------|------------------|


Q E E E E E E E E E Q E E E Q E E E E E E E E E Q E E E
|----------------|----------------|----------------|-------------------|
|----------------|----------------|----------------|-------------------|
|----------------|----------------|----------------|-------------------|
|----------------|----------------|----------------|-------------------|
|----0---0-------|---2------2-----|----0---0-------|---2-------2-------|
|-2----2---2-2-1-|-0---0-0----0-1-|-2----2---2-2-1-|-0---0-0------0-1--|
|
| W W W H E Q.
|----------------|----------------|----------------|-------------------|
|----------------|----------------|----------------|-----------6-------|
|----------------|----------------|----------------|-------------------|
|----------------|----------------|----------------|-------------------|
|----------------|----------------|----------------|-------------------|
|----------------|----------------|----------------|-------------------|


Guitar Solo
Q E E E E E E E E E Q E E E
||---------------------|---------------------|
||o--------------------|---------------------|
||---------------------|---------------------|
||---------------------|---------------------|
||o-----0----0---------|----2----------2-----|
||--2-----2------2-2-1-|-0----0-0--------0-1-|
|
| Q. E +E Q E Q. E +E Q E
||---------------------|---------------------|
||o--------------------|---------------------|
||--6-----9-(9)-11S==6-|-6------9-(9)-11S==6-|
||---------------------|---------------------|
||o--------------------|---------------------|
||---------------------|---------------------|


Q E E E E E E E E E Q E E E 4x
|----------------------|---------------------------||
|----------------------|--------------------------o||
|----------------------|---------------------------||
|----------------------|---------------------------||
|-----0----0-----------|-------2---------2--------o||
|-2-----2------2--2--1-|--0------0--0------0-1-----||
|
| Q. E +E E E E Q. E E E E. S 4x
|----------------------|---------------------------||
|--------------------0-|--------------------------o||
|-6-----9-(9)-11-11-11-|-11b13-----11-11-9-9S==6---||
|----------------------|---------------------------||
|----------------------|--------------------------o||
|----------------------|---------------------------||


Pre-Chorus
1.,2.,3. 4.
Gtr I
E E E Q E E E Q. Q. E E E E E E E E E E E E E E E E E E
|----------0-----||-------2--------|------------------||------------------||
|-------0--0-0-0-||o------2----2---|-----------------o||------------------||
|-------1--1-1-1-||-------4----4-0-|-2-2-2-2-2-2-2-2--||-2-2-2-2-2-2-2-2--||
|-------2----2-2-||--4---------4-0-|-2---2---2---2----||-2-2-2-2-2-2-2-2--||
|---2------------||o---------------|-0---0---0---0---o||-0-0-0-0-0-0-0-0--||
|-----0----------||--2-------------|------------------||------------------||


Chorus
Gtr I
Q E Q Q. Q E Q E Q Q E Q E Q E E Q E E E E
|----------7----|-5--5-5--5-5--|------7-------|-5-5-5---5-5-5-5--|
|----7-----7----|-5--5-5--5-5--|------7--9-7--|-5-5-5---5-5-5-5--|
|------9--------|-7--7-7--7-7--|----7----9-7--|-7-7-7---7-7-7-7--|
|-9-------------|-7--7-7--7-7--|-9------------|-7-7-7---7-7-7-7--|
|-9-------------|-5--5-5--5-5--|-9------------|-5-5-5---5-5-5-5--|
|-7-------------|--------------|-7------------|------------------|
|
| Gtr II
| H E Q. Q E Q E Q Q E Q E Q Q E Q E Q
|---------------|--------------|--------------|------------------|
|---------------|--------------|--------------|------------------|
|---------------|-7--7-7--7-7--|--------------|-7---7-7---7-7----|
|-9------9-9----|-7--7-7--7-7--|-9--9-9--9-9--|-7---7-7---7-7----|
|-9------9-9----|-5--5-5--5-5--|-9--9-9--9-9--|-5---5-5---5-5----|
|-7------7-7----|--------------|-7--7-7--7-7--|------------------|


1.,2.,3. 4.
Q E Q. E E E E Q E E E E 4x E E E Q E E E
||-------7-----7---|-5-5-5---5-5-5-5--||-5-5-5-5----------|
||o----7-7-----7-7-|-5-5-5---5-5-5-5-o||-5-5-5-5----------|
||-----7-------7-7-|-7-7-7---7-7-7-7--||-7-7-7-7----------|
||--9--9-------9-9-|-7-7-7---7-7-7-7--||-7-7-7-7----------|
||o-9--------------|-5-5-5---5-5-5-5-o||-5-5-5-5----------|
||--7--------------|------------------||----------0-0--1--|
|
| Q E Q E Q Q E Q E Q 4x E E E H +E
||-----------------|------------------||------------------|
||o----------------|-----------------o||------------------|
||-----------------|-7---7-7---7-7----||-7-7-7-7------(7)-|
||--9--9-9---9-9---|-7---7-7---7-7----||-7-7-7-7------(7)-|
||o-9--9-9---9-9---|-5---5-5---5-5---o||-5-5-5-5------(5)-|
||--7--7-7---7-7---|------------------||------------------|


Outro
Gtr I
Q E E E E E E E E E Q E E E 4x W
||-----------------|-----------------||-0----*|
||o----------------|----------------o||-0----*|
||-----------------|-----------------||-0----*|
||-----------------|-----------------||-4----*|
||o----0---0-------|---2------2-----o||-4----*|
||--2----2---2-2-1-|-0---0-0----0-1--||-2----*|

ProTabs promo.jpg

Onbeperkt en gratis toegang tot alle 25.000
Tabs & Chords en direct meespelen met

Artiest Liedje

...

Gitaarakkoorden nirvana - Come as you are (2)

Dankzij de bladmuziek op deze pagina wordt het een stuk makkelijker om met de gitaar mee te spelen met Come as you are (2) van nirvana De ProTabs van Gitaartabs worden door onze professionele gitaardocenten samengesteld. De tabs en chords zijn door leden zelf geplaatst. Deze undefined van nirvana met Come as you are (2) is voor je geschreven door fab

Tabs & Chords van nirvana - Come as you are (2)

Bij de ProTabs delen we niet alleen de tablatuur maar ook de speelwijze van Come as you are (2) Met een beetje gitaar ervaring moet je dit gitaarliedje zeker kunnen spelen, maar als het niet lukt zijn we er altijd om je te helpen. Door een gratis account aan te maken krijg je niet alleen toegang tot deze chords ,akkoorden & tabs van Come as you are (2) maar kun je ook onbeperkt meespelen met een van de meer dan 25.000 andere tabs & chords in onze database.

Plaats opmerking

Beoordeel deze song

Rate UsDon’t love itNot greatGoodGreatLove itRate Us

Bedankt voor je beoordeling!