I'd lie for you

Gitaarliedjes, tabs & akkoorden (chords) i'd lie for you - meatloaf

Songtype: Tab

arrow&v

Markeer als favoriet

Favoriet

Gemarkeerd als favoriet

Capo:

0

meatloaf

meatloaf

Song
Album
Categorie

i'd lie for you

Downloads
47
Niveau
1

Geplaatst door
sander
ProTabs-promo.jpg

D D Dsus2 D Dsus4 Dsus4

e--0--0--2--3--3--2--0-----0--2--0----0--0--2--3--3--2--0-----0--2--0---
B-----------------------------3-------------------------------------------3---------------
G-------------------------------------------------------------------------------------------
D-------------------------------------------------------------------------------------------
A-------------------------------------------------------------------------------------------
E-------------------------------------------------------------------------------------------


e--0--0--2--3--3--2--2--0--------3--5--7--0---
B---------------------------------3--3-----------------
G-------------------------------------------------------
D-------------------------------------------------------
A-------------------------------------------------------
E-------------------------------------------------------

Na: 'I'd lie for you and that's the truth'
e----------------0--2--0---
B--3--3--3-----------------
G----------------------------
D----------------------------
A----------------------------
E----------------------------


After 'I'd even sell my soul for you'
e------------------
B--3--2--0------
G-----------------
D-----------------
A-----------------
E-----------------

ProTabs promo.jpg

Onbeperkt en gratis toegang tot alle 25.000
Tabs & Chords en direct meespelen met

Artiest Liedje

...

Gitaarakkoorden meatloaf - i'd lie for you

Dankzij de bladmuziek op deze pagina wordt het een stuk makkelijker om met de gitaar mee te spelen met i'd lie for you van meatloaf De ProTabs van Gitaartabs worden door onze professionele gitaardocenten samengesteld. De tabs en chords zijn door leden zelf geplaatst. Deze undefined van meatloaf met i'd lie for you is voor je geschreven door sander

Tabs & Chords van meatloaf - i'd lie for you

Bij de ProTabs delen we niet alleen de tablatuur maar ook de speelwijze van i'd lie for you Met een beetje gitaar ervaring moet je dit gitaarliedje zeker kunnen spelen, maar als het niet lukt zijn we er altijd om je te helpen. Door een gratis account aan te maken krijg je niet alleen toegang tot deze tab ,akkoorden & tabs van i'd lie for you maar kun je ook onbeperkt meespelen met een van de meer dan 25.000 andere tabs & chords in onze database.

Plaats opmerking

Verstuur

Beoordeel deze song

Rate UsDon’t love itNot greatGoodGreatLove itRate Us

Bedankt voor je beoordeling!